Oops, an error
Loading. Please wait.

Parasito Bass Tab

version 2
version 2

Whole song

92 views 1 this week
no commentswrite comment
1 2 3 4 5
3 more votes to show rating
add to favorites
launch autoscroll
font size
0
reset
guitar tuner
×
Best way to learn
"Parasito"
Autoscroll
slow
fast
+/-
esc
set tempo
stop
Aca les dejo una buena cancion de Molotov espero les guste mi version

Intro
G|-----|x7
D|-----|
A|-----|
E|-(2)-|

G|--------------|x4
D|------------2-|
A|------4-4-4---|
E|-2-X-2--------|

Verso
G|-----------------------------------|x5
D|-------------------------------8---|
A|-------6-7--X-6-7-------6-7--7---9-|
E|-2-X-2------------2-X-2------------|

G|--------------------|
D|--------------------|
A|-------6-7--X-6-7---|
E|-2-X-2------------2~|

Coro
G|--------------|x7
D|------------2-|
A|------4-4-4---|
E|-2-X-2--------|

G|----|
D|----|
A|----|
E|-2--|


Verso
G|-----------------------------------|x5
D|-------------------------------8---|
A|-------6-7--X-6-7-------6-7--7---9-|
E|-2-X-2------------2-X-2------------|

G|--------------------|
D|--------------------|
A|-------6-7--X-6-7---|
E|-2-X-2------------2~|

Coro
G|--------------|x8
D|------------2-|
A|------4-4-4---|
E|-2-X-2--------|

Puente ('Dicen que...')
G|-----|x8
D|-----|
A|-----|
E|-0-2-|

G|-------------------------------------|
D|---------------------------------8---|
A|---------6-7--X-6-7-------6-7--7---9-|
E|-0-2-X-2------------2-X-2------------|

G|--------------------|
D|--------------------|
A|-------6-7--X-6-7---|
E|-2-X-2------------2~|

Coro
G|--------------|x8
D|------------2-|
A|------4-4-4---|
E|-2-X-2--------|

Puente 2 ('Ey ya!, ya tranquilo men...')
G|-----|x8
D|-----|
A|-----|
E|-0-2-|

Coro
G|--------------|x8
D|------------2-|
A|------4-4-4---|
E|-2-X-2--------|

G|----|
D|----|
A|----|
E|-2--|

Escuchá la canción para saber el ritmo
Suggest correction
Give kudos to tab author, rate the tab!
1 2 3 4 5
comments
print report bad tab
guest
You may want to rate the tab now too:
select rating
Wanna post a correction for this tab? Suggest correction