Oops, an error
Loading. Please wait.

Parasito Bass

version 3
version 3

Whole song

by Molotov
125 views 1 this week
no commentswrite comment
1 2 3 4 5
3 more votes to show rating
add to favorites
launch autoscroll
font size
0
reset
guitar tuner
×
Best way to learn
"Parasito"
Autoscroll
slow
fast
+/-
esc
set tempo
stop
MOLOTOV
Parásito (bajo)
Afinación Standard EADG
Transcripción por Mariano Ferreris

INTRO (x7)
G-|-----------------------------------|
D-|-----------------------------------|
A-|-----------------------------------|
E-|-(2)-------------------------------|
        subieron la mota.............

ESTRIBO RIFF (x4)
G-|-------------------------|
D-|-------------------------|
A-|----------4-4----4--7----|
E-|--2-----2----------------|

VERSO RIFF (x4)
G-|------------------------------------------------|
D-|-----------------------------------------7--4---|
A-|-------4--6--7---4--6-------4--6--7---7---------|
E-|--2---------------------2-----------------------|

Repite ESTRIBO RIFF 	x8

Repite  VERSO  RIFF	x4

Repite ESTRIBO RIFF	x8


PUENTE Nº1 ('Dicen que por las noches...')
G|-----|x4 |-----|x4
D|-2-4-|   |-----|
A|-----|   |-2---|
E|-----|   |---2-|

Repite  VERSO  RIFF	x4

Repite ESTRIBO RIFF	x8


PUENTE Nº2 (Hey ya, ya tranquilo men..)
G|--------|x4
D|--------|
A|-2--0-2-|
E|--------|


Repite ESTRIBO RIFF	x8

____________________________________________________________________

Bueno eso es todo, es un tema fácil de tocar y se mantiene
siempre en las mismas notas.... ¡¡¡Aguante Molotov!!!
(Recomiendo escuchar la canción para agarrar el ritmo)

Agradezco a quien hizo la tab que circulaba por la red (no decía
el nombre del autor) ya que me basé en ella pero le hice un par
de correciones ya que al verso y al estribillo le hacían falta
un par de retoques. La parte del puente la dejé igual pero sigue
sin convencerme asi que les sugiero a uds. que la corrijan si pueden.

	MARIANO	FERRERIS
	Buenos Aires, Argentina
Suggest correction
Give kudos to tab author, rate the tab!
1 2 3 4 5
comments
print report bad tab
guest
You may want to rate the tab now too:
select rating
Wanna post a correction for this tab? Suggest correction