Oops, an error
Loading. Please wait.

Perra Arrabalera Bass Tab

143 views 6 this week
no commentswrite comment
1 2 3 4 5
3 more votes to show rating
add to favorites
launch autoscroll
font size
0
reset
guitar tuner
×
Best way to learn
"Perra Arrabalera"
Autoscroll
slow
fast
+/-
esc
set tempo
stop
Riff A:
G|---------------------|
D|---------------------|
A|-44-4-22-2-----------|
E|-----------22-2-55-5-|
Riff B:
G|-----------------|
D|-----------------|
A|-(4)-(2)---------|
E|---------(2)-(5)-|
Riff C:
G|------------------------------------------|
D|------------------------------------------|
A|-444444-3h4--222222-1h2-------------------|
E|-------------------------222222-1h2--(5)--|
Riff D:
G|---------------------------------|
D|---------------------------------|
A|-(4)444-3-(2)222-1---------------|
E|-------------------(2)222-4-(5)--|
Riff E:
G|-----------------------|-----------------------|
D|--3-3-5-6--3-5-6-5-3-3-|--1-1-2-4--1-2-4-2-1-1-|
A|-4-4----------------4--|-2-2----------------2--|
E|-----------------------|-----------------------|

 |-----------------------|-----------------------|
 |-----------------------|-----------------------|
 |--1-1-2-4--1-2-4-2-1-1-|--4-4-5-7--4-5-7-5-4-4-|
 |-2-2----------------2--|-5-5----------------5--|
Riff F:
G|---------------------------------|
D|---------------------------------|
A|-4(x20)--2(x20)------------------|
E|-----------------2(x20)--5(x20)--|

La Canción Viene Así:

Intro: 	   Riff A x2
Verso: 	   Riff B x1
       	   Riff C x2
       	   Riff B x1
       	   Riff C x2
Puente:	   Riff D x1
Coro:	   Riff B x2
Verso:     Riff B x1
	   Riff C x2
Pre-Coro:  Riff B x1
Coro:	   Riff B x2
Solo:      Riff E x2
Coro:	   Riff F x4
Final:	   Riff B x2

Escuchá la canción para saber el ritmo
Suggest correction
Give kudos to tab author, rate the tab!
1 2 3 4 5
comments
print report bad tab
guest
You may want to rate the tab now too:
select rating
Wanna post a correction for this tab? Suggest correction