Oops, an error
Loading. Please wait.

Polkas Palabras Bass Tab

73 views 6 this week
no commentswrite comment
1 2 3 4 5
3 more votes to show rating
add to favorites
launch autoscroll
font size
0
reset
guitar tuner
×
Best way to learn
"Polkas Palabras"
Autoscroll
slow
fast
+/-
esc
set tempo
stop
Intro
G|----------------------|x4
D|----------------------|
A|-------1--------1-----|
E|-1-3333--3-1-2-3--3-1-|

Verso
G|-------------------|x6
D|-------------------|
A|-------------------|
E|-5--5--5--0-0--0h3-|

Coro
G|----------------------|-----------------------|
D|----------------------|-----------------------|
A|-------1--------1-----|-------1-1-33-55-77/12-|
E|-1-3333--3-1-2-3--3-1-|-1-3333-3--------------|
 |     TRES    Veces    |

Verso
G|-------------------|x6
D|-------------------|
A|-------------------|
E|-5--5--5--0-0--0h3-|

Coro *2veces*
G|----------------------|-----------------------|
D|----------------------|-----------------------|
A|-------1--------1-----|-------1-1-33-55-77/12-|
E|-1-3333--3-1-2-3--3-1-|-1-3333-3--------------|
 |     TRES    Veces    |

Verso 2
G|-------------------|x6
D|-------------------|
A|-------------------|
E|-0-3-5-6-7--55-3\1-|

Coro *2veces*
G|----------------------|-----------------------|
D|----------------------|-----------------------|
A|-------1--------1-----|-------1-1-33-55-77/12-|
E|-1-3333--3-1-2-3--3-1-|-1-3333-3--------------|
 |     TRES    Veces    |

Final *2veces*
G|----------------------|-----------------------|
D|----------------------|-----------------------|
A|-------1--------1-----|-------1-1-33-55-77/12-|
E|-1-3333--3-1-2-3--3-1-|-1-3333-3--------------|
 |     TRES    Veces    |

Escuchá la canción para saber el ritmo
Suggest correction
Give kudos to tab author, rate the tab!
1 2 3 4 5
comments
print report bad tab
guest
You may want to rate the tab now too:
select rating
Wanna post a correction for this tab? Suggest correction