Oops, an error
Loading. Please wait.

Polkas Palabras Tab

66 views 3 this week
no commentswrite comment
1 2 3 4 5
3 more votes to show rating
add to favorites
launch autoscroll
font size
0
reset
how to read this tab
guitar tuner
×
Best way to learn
"Polkas Palabras"
Autoscroll
slow
fast
+/-
esc
set tempo
stop
En esta canción puedo tener errores pero suena bien 
para mi
INTRO:
(podria ser el bajo pero asi lo toco yo en la guitarra)

Dist+wah-wah
E|---------------------------------------------|
B|---------------------------------------------|
G|---------------------------------------------|
D|---------------------------------------------|
A|---------1-------1---------------------------|
E|-1-3-3-3---3-1-3---3-1-3---------------------|  (4x)

riff 1:(puede usarse otra guitarra que toque la otra 
parte que va durante el verso, pero en si, este es 
el imporante a mi parecer)
Dist+wah-wah
E|------------------------------------------|
B|------------------------------------------|
G|------------------------------------------|
D|------------------------------------------|
A|------------------------------------------|
E|-5-5-5-0-0-3-5----------------------------|
Coro:se repite el intro (Dist)
Pocas palabras, si me quieres humillar...

verso:otra vez el riff 1

Coro:repetir el intro

riff 2:  Dist+wah-wah
E|------------------------------------------|
B|------------------------------------------|
G|------------------------------------------|
D|------------------------------------------|
A|------------------------------------------|
E|-0-3-5-6-7-5-5-3-0------------------------|  (2x)

Luego se toca eso durante el verso

Se repite el coro

riff 3

E|------------------------------------------|
B|------------------------------------------|
G|------------------------------------------|
D|------------------------------------------|
A|---------1---------1----------------------|
E|-1-3-3-3---1-3-3-3---1-3-3-3--------------|
(muchas veces)


final (despues de repetir muchas veces el riff 3) 
D|------------------------------------------|
A|-1----------------------------------------|
E|---3-1-0-0--------------------------------|

Dudas o comentarios, escribanme
Suggest correction
Give kudos to tab author, rate the tab!
1 2 3 4 5
comments
print report bad tab
guest
You may want to rate the tab now too:
select rating
Wanna post a correction for this tab? Suggest correction