Oops, an error
Loading. Please wait.

Quen Bon-Ponk Bass

by Molotov
46 views 1 this week
no commentswrite comment
1 2 3 4 5
3 more votes to show rating
add to favorites
launch autoscroll
font size
0
reset
guitar tuner
×
Best way to learn
"Quen Bon-ponk"
Autoscroll
slow
fast
+/-
esc
set tempo
stop
Quen Bon-Ponk...................

Nombre original:Que Pompon

..........................................................


----------------------------------------------
----------------------------------------------
----8----8------------------------------------
---------------10----6----8-------------------

CORO:
Quen Bon-Ponk............
----------------------------------------------
----------------------------------------------
----------8---8---10---10---10---10---8---8---
------------8---8---10---10---10---10---8---8-

------------------------------------------------------------------------------------------
------------------------------------------------------------------------------------------
-------8-8-8-8-8-8-8-8-8-8-8-8-8-8-8-8----------------------------------------------------
-----------------------------------------10-10-10-10-10-10-10-10-10-10-10-10-10-10-10-10--

---------------------------------
---------------------------------
---------------------------------
-6-6-6-6-6-6-6-6--8-8-8-8-8------


CORO:
Quen Bon-Ponk............
----------------------------------------------
----------------------------------------------
----------8---8---10---10---10---10---8---8---
------------8---8---10---10---10---10---8---8-

wu wu wu wu wu............
--------------------------------------------------------------------------------------
--------------------------------------------------------------------------------------
---8-8-8-8-8-8-8-8-------------------10-10-10-10-10-10-10-10--------------------------
--------------------8-8-8-8-8-8-8-8---------------------------10-10-10-10-10-10-10-10-

------------------------------------------------------------------------------
-------------------------------------12-------12--------8----10---------------
---8-8-8-8-8-8-8-8-8-8-8-8-8-8-8-8-----12--12---12--12---8-8------10----------
-----------------------------------------10-------10------6-----8-------------

CORO:
Quen Bon-Ponk............
----------------------------------------------
----------------------------------------------
----------8---8---10---10---10---10---8---8---
------------8---8---10---10---10---10---8---8-

Termina asi:
------------------
------------------
-----8/4----------
------------------


Bueno eso es todo..............
Suggest correction
Give kudos to tab author, rate the tab!
1 2 3 4 5
comments
print report bad tab
guest
You may want to rate the tab now too:
select rating
Wanna post a correction for this tab? Suggest correction