Oops, an error
Loading. Please wait.

Rap, Soda Y Bohemias Bass

by Molotov
44 views 1 this week
no commentswrite comment
1 2 3 4 5
3 more votes to show rating
add to favorites
launch autoscroll
font size
0
reset
guitar tuner
×
Best way to learn
"Rap, Soda Y Bohemias"
Autoscroll
slow
fast
+/-
esc
set tempo
stop
*Intro de Guitarra*

Verso 1
G|------------|x8
D|------------|
A|-1----------|
E|--1--1--1-2-|

*Puente de Guitarra*

Verso 1
G|------------|x5
D|------------|
A|-1----------|
E|--1--1--1-2-|

Coro 1
G|-------------------|----------------|
D|---------3--2-1-0--|----------------|
A|-6--5-3----------1-|-6--5-3--1--3/6-|
E|-------------------|----------------|

Final del Coro
G|--8--8--8---|
D|------------| **No es Exacto, pero Suena Bien**
A|-6--6--6--6-|
E|------------|

Verso 1
G|------------|x8
D|------------|
A|-1----------|
E|--1--1--1-2-|

Coro 2
G|-------------------|-------------------------|
D|---------3--2-1-0--|---------3--2-1-0--------|
A|-6--5-3----------1-|-6--5-3-----------4--3-2-|
E|-------------------|-------------------------|

Verso 2 ('Vi la silueta, de una perra...')
G|---------------|
D|---------------| **Muchas Veces**
A|-7---6---5---6-|
E|---------------|

Puente
G|---------------------------|---------------------------|
D|---------------------------|---------------------------|
A|-6-------3-4-5-6-------3-0-|-6-------5-6-7-8--------6--|
E|--3-4-5-6-------3-4-5-6----|--3-4-5-6-------5-6-7-8--8-|

Verso 3 ('If you think...')
G|--------------|x4 |--------------------|
D|--------------|   |---------4--4--4--4-|
A|-999999999999-|   |-9-77-6-4--4--4--4--|
E|--------------|   |--------------------|

Puente
G|---------------------------|---------------------------|
D|---------------------------|---------------------------|
A|-6-------3-4-5-6-------3-0-|-6-------5-6-7-8--------6--|
E|--3-4-5-6-------3-4-5-6----|--3-4-5-6-------5-6-7-8--8-|

Verso 1
G|------------|
D|------------| **Hasta el Final**
A|-1----------|
E|--1--1--1-2-|

Escuchá la canción para saber el ritmo
Suggest correction
Give kudos to tab author, rate the tab!
1 2 3 4 5
comments
print report bad tab
guest
You may want to rate the tab now too:
select rating
Wanna post a correction for this tab? Suggest correction