Oops, an error
Loading. Please wait.

Rap, Soda Y Bohemias Tab

160 views 3 this week
no commentswrite comment
1 2 3 4 5
3 more votes to show rating
add to favorites
launch autoscroll
font size
0
reset
how to read this tab
guitar tuner
Autoscroll
slow
fast
+/-
esc
set tempo
stop
Help us to improve Ultimate-Guitar.com Take our survey!
×
E|-----------15~~--13~~---------------|  
B|------------------------------------|   
G|------------------------------------|   
D|-------0----------------------------|  X4 
A|-1---1------------------------------|  
E|---1--------------------------------|


E|--------------------------------|
B|--------------------------------|
G|--------------------------------|
D|-3------------------------------|
A|-1--3--3--3--4------------------|
E|----1--1--1--2------------------|

mama, mama, mamate esta.....                                                 
E|-------------------|    E|-------------------|                                                    
B|-------------------|    B|-------------------|                                                   
G|-------------------|    G|-------------------|                                                      
D|--------3-2-1-0----|    D|-------------------|                                                   
A|-6-5-3----------1--|    A|-6-5-3--1-3/6------|                                   
E|-------------------|    E|-------------------|                                                  

y en la segunda vez cambia......                                               
E|-------------------|    E|---------------------|                                                    
B|-------------------|    B|---------------------|                                                   
G|-------------------|    G|---------------------|                                                      
D|--------3-2-1-0----|    D|-------3-2-1-0-------|                                                   
A|-6-5-3----------1--|    A|-6-5-3---------4-3-2-|                                   
E|-------------------|    E|---------------------|                                                  

relleno...
E|--11-10-9-10---11-10-9-10---|
B|----------------------------|
G|----------------------------|
D|----------------------------|
A|----------------------------|
E|----------------------------|

SOLO

E|-----------------------------------|
B|-----------------------------------|
G|-----------------------------------|
D|-----------------------------------|
A|-6---------3-4-5-6----------3-0----|
E|---3-4-5-6---------3-4-5-6---------|

E|-----------------------------------|
B|-----------------------------------|
G|-----------------------------------|
D|-----------------------------------|
A|-6---------5-6-7-8---------6-------|
E|---3-4-5-6---------5-6-7-8---8-----|

If you think you score with me kiss my ass...
E|----------------------------------------------------|
B|----------------------------------------------------|
G|----------------------------------------------------|
D|-7------------------------9---------4---4---4---4---|
A|-5-9--9-9-9-9-9-9-9-9-9-9-7-7-7-6-4-2-4-2-4-2-4-2-4-|
E|---7--7-7-7-7-7-7-7-7-7-7---5-5-4-2---2---2---2---2-|

(La parte del 9 se toca mas veces pero no quise ponerlas todas)  
              7
Suggest correction
Give kudos to tab author, rate the tab!
1 2 3 4 5
comments
print report bad tab
guest
You may want to rate the tab now too:
select rating
Wanna post a correction for this tab? Suggest correction