Oops, an error
Loading. Please wait.

Rastamandita Tab

version 3
version 3

Whole song

271 views 1 this week
no commentswrite comment
1 2 3 4 5
1 last vote to show rating
add to favorites
launch autoscroll
font size
0
reset
how to read this tab
guitar tuner
Autoscroll
slow
fast
+/-
esc
set tempo
stop
Help us to improve Ultimate-Guitar.com Take our survey!
×
               ***************************
                *       TABS:M80        *
               ***************************
               ***************************
                    wigaz@
                         1/01/05


Baila rica nena sabrocito
Baila rica nena mas pegadido
Me gusta chicha me gusta chacha
Yo quiero que me des
Que me des papaya

  X2
E|-----------------------|------------------------|
B|-----------------------|------------------------|
G|-----------------------|------------------7h8-o-|
D|-10-10-10-10-8----8h10-|-10-10-10-10-8--------o-|
A|-10------------10------|-10------------10-------|
E|-----------------------|------------------------|

Estas en tu casa tan triste tan sola
Nada que hacer ya estas picandote la cola
Yo te recomiendo para tu calentura
Que vayas a la tienda por un bote de pintura.

D 
Consigues un mangoel mango de un hacha
Y luego te lo ensartas en la cucaracha
Si no te es suficiente y no te prendio la mecha
Sigues caliente y no quedastes satisfecha.

G
Ve por el mango el mango de un martillo
Ponle vaselina y metetelo en el fundillo
Si ya se te acabo toda la vaselina
Y ves a un guey de azul parado en una esquina

Que esta esperando pa pintarlo de rojo
E|----------------------------|
B|----------------------------|
G|-------5p0------------------|
D|-----5------8--7--5---------|
A|---7-----------------8--7---|
E|-8------------------------8-|

No lo pintes café que asi no me lo cojo
E|----------------------------|
B|----------------------------|
G|-------5p0------------------|
D|-----5------8--7--5---------|
A|---7----------------8--7----|
E|-8-----------------------8--|

D 
Baila rica nena, sabrosito

Baila rica nena, mas pegadito
    G7
Me gusta chicha, me gusta chacha
    D 
Yo quiero que me des, que me des papaya

Cada vez que te miro se me para
Cada vez que te miro se me para
        G7
Mi corazon, se me para
        D 
Mi corazon, se me para.


Solo:
E|--------------------|-------------------|------------------|
B|--------------------|-------------------|------------------|
G|----8-----8------7--|--------------8----|-8------7------8--|
D|-10----10---10-9---9|-7-7-7-----10----10|---10-9---9/10----|
A|--------------------|-------10----------|------------------|
E|--------------------|-------------------|------------------|

E|--------------------|-------------------|------------------|
B|--------------------|-------------------|------------------|
G|----8-----8------7--|--------------8----|-8----7-7-7/8--8--|
D|-10----10---10-9---9|-7-7-7-----10----10|---10-9-9-9/10-10-|
A|--------------------|-------10----------|------------------|
E|--------------------|-------------------|------------------|


   C
No se y no me inporta
      G                   C
Con quien te hayas metido
                G
Pero ese culo parece radioctivo
  G7               F
Como no quiero ser R.O.H positivo
     C              G
Por eso me pongo doble preservativo.

  D 
Y es que me gusta tu pelo rubio
Y a veces contigo me pongo muy duro
Y es que me gusta tanto tu pelo
Ra pa pua pua ra pa pua pua.

     G
Que cada que te miro me crece
Que cada que te miro me crece esta pena
Alivianame yor pa mandarle un mensaje
Me pone de malas me lleva el coraje.

Rastaman, rastaman, rastamandita
E|----------------------------|
B|----------------------------|
G|-------5p0------------------|
D|-----5------8--7--5---------|
A|---7-----------------8--7---|
E|-8------------------------8-|


Parece una botella chaparrita
E|----------------------------|
B|----------------------------|
G|-------5p0------------------|
D|-----5------8--7--5---------|
A|---7-----------------8--7---|
E|-8------------------------8-|

D 
Baila rica nena, sabrosito

Baila rica nena, mas pegadito
    G7
Me gusta chicha, me gusta chacha
    D 
Yo quiero que me des, que me des papaya
Yo quiero que me des, que me des papaya
quiero que me des, que me des papaya
   G7
quiero que me des, que me des papaya
   D 
quiero que me des, que me des papaya.


Quiero comprar un boletito
Para que baile mas pegadito
Quiero comprar la taquilla
Parece que yo pueda hacerle chichilla.

Quiero bailar con la rasta
Yo quiero bailar con la rastamandita
Por que ella es como una botella
Ella es una botella de chaparrita.

   D 
Te vez fella tu te ves fella

Levanta la cara para que te vella
   G7
Rastaman, rastaman, rastamandita
   D 
Parece una botella de chaparrita

     D 
Cada vez que te miro se me para

Cada vez que te miro se me para
       G7
Mi corazon se me para
       D 
Mi corazon se me para
D 
Baila rica nena, sabrosito

Baila rica nena, mas pegadito
    G7
Me gusta chicha, me gusta chacha
    D 
Yo quiero que me des, que me des papaya
Yo quiero que me des, que me des papaya
quiero que me des, que me des papaya
   G7
quiero que me des, que me des papaya
   D 
quiero que me des, que me des papaya.


o------------ACORDES------------o
  D      G      G7     C      F
E-6-|  E-3-|  E-3-|  E-3-|  E-1-|
B-5-|  B-3-|  B-3-|  B-5-|  B-1-|
G-5-|  G-4-|  G-4-|  G-5-|  G-2-|
D-5-|  D-5-|  D-3-|  D-5-|  D-3-|
A-5-|  A-5-|  A-5-|  A-3-|  A-3-|
E---|  E-3-|  E-3-|  E---|  E-1-|
o-------------------------------o

Saludos para toda la banda
Arriba c.d juarez
Suggest correction
Give kudos to tab author, rate the tab!
1 2 3 4 5
comments
print report bad tab
guest
You may want to rate the tab now too:
select rating
Wanna post a correction for this tab? Suggest correction