Oops, an error
Loading. Please wait.

Suena Simplemente Feo Tab

by Molotov
37 views 1 this week
no commentswrite comment
1 2 3 4 5
3 more votes to show rating
add to favorites
×
Save as Personal and add changes to this tab that will be seen only by you. Learn more ›
×
You can save this tab as Personal to edit and correct it or add notes. All changes will be seen only by you. Learn more »
save as personal
new!
launch autoscroll
font size
0
reset
how to read this tab
guitar tuner
Autoscroll
slow
fast
+/-
esc
set tempo
stop
suena simplemente feo (tokada en black & white, la apuesta)
molotov


TRANSCRIBED BY RUDY GUZMAN
guzman_84@

con ese ritmo loko suena tremendo por eso es ke lo bailan suena tremendo...

se van a enlokeceeeeer...
e:-------------------3-3-3-3-3-3-3-3-3-|
B:-------------------3-3-3-3-3-3-3-3-3-|
G:-3--3-3-3-3-3-3-3--0-0-0-0-0-0-0-0-0-|
D:-3--3-3-3-3-3-3-3--0-0-0-0-0-0-0-0-0-|
A:-1--1-1-1-1-1-1-1--2-2-2-2-2-2-2-2-2-|
E:-------------------3-3-3-3-3-3-3-3-3-|

gt1
e:------------------------------------|
B:------------------------------------|
G:------------------------------------|
D:-------------5----------------------|
A:-3--3-5-6-7-----3--3--0-0--1-1--2-2-|
E:------------------------------------|

gt2
e:--------------------------------------------|
B:--------------------------------------------|
G:----------------17--------------------------|
D:-10-10-12-13-14----10-10--------------------|
A:--------------------------12-12-13-13-14-14-|
E:--------------------------------------------|

just in case u wanna play both guitars at the same time
:-------------8----------------------|
:-1-1--3-4-5-----1-1-----------------|
:-------------5-------2--2--3-3--4-4-|
:------------------------------------|
:-3-3--5-6-7-----3-3--0--0--1-1--2-2-|
:------------------------------------|

verse
por eso por las nachas le pedorreo pos soy el gringo loko 
y me pedorreo por eso kuando kago me pedorreo me vine a descocer, 
aplaudan con las nalgas o les pitorreo periko y una tacha si 
wakareo con musika de fierro pero de fierro se van a aborrecer

gt1
e:------------------------------------|
B:------------------------------------|
G:------------------------------------|
D:-------------5----------------------|
A:-3--3-5-6-7-----3--3--0-0--1-1--2-2-|
E:------------------------------------|

gt2
e:--------------------------------------------|
B:--------------------------------------------|
G:----------------17--------------------------|
D:-10-10-12-13-14----10-10--------------------|
A:--------------------------12-12-13-13-14-14-|
E:--------------------------------------------|

just in case u wanna play both guitars at the same time
:-------------8----------------------|
:-1-1--3-4-5-----1-1-----------------|
:-------------5-------2--2--3-3--4-4-|
:------------------------------------|
:-3-3--5-6-7-----3-3--0--0--1-1--2-2-|
:------------------------------------|

chorus
vamos tokos a kagar a salir en teleshit 
gt1
e:------------------------------------|
B:------------------------------------|
G:-9-9-9-9-9-9-9-9-9------------------|
D:-9-9-9-9-9-9-9-9-9--7-7-7-7-7-7-7-7-|
A:-7-7-7-7-7-7-7-7-7--7-7-7-7-7-7-7-7-|
E:--------------------5-5-5-5-5-5-5-5-|

gt2
e:------------------------------------|
B:----5-----5-------------------------|
G:-4--4--4--4--5--4---2-2-2-2-2-2-2-2-|
D:-2--2--2--2--5--4---2-2-2-2-2-2-2-2-|
A:-2--2--2--2--3--2---0-0-0-0-0-0-0-0-|
E:------------------------------------|

nada de hacer getas todos saken la voz los de black & white
gt1
:----------------------------------------------3-3-3-3-3-3-3-3-|
:-----------------------------------1-1-1-1-1--3-3-3-3-3-3-3-3-|
:-----------------------------------2-2-2-2-2--0-0-0-0-0-0-0-0-|
:-8-8-8-8-8-8-8-8--5-5-5-5-5-5-5-5--2-2-2-2-2--0-0-0-0-0-0-0-0-|
:-8-8-8-8-8-8-8-8--5-5-5-5-5-5-5-5--0-0-0-0-0--2-2-2-2-2-2-2-2-|
:-6-6-6-6-6-6-6-6--3-3-3-3-3-3-3-3-------------3-3-3-3-3-3-3-3-|

gt2
e:----------------------------------------------3-3-3-3-3-3-3-3-|
B:----------------------------------------------3-3-3-3-3-3-3-3-|
G:-3-3-3-3-3-3-3-------------------2-2-2-2-2-2--0-0-0-0-0-0-0-0-|
D:-3-3-3-3-3-3-3--5-5-5-5-5-5-5-5--2-2-2-2-2-2--0-0-0-0-0-0-0-0-|
A:-1-1-1-1-1-1-1--5-5-5-5-5-5-5-5--0-0-0-0-0-0--2-2-2-2-2-2-2-2-|
E:----------------3-3-3-3-3-3-3-3---------------3-3-3-3-3-3-3-3-|

por eso le sakamos lo frijolero espero ke lo tomen de kotorreo por 
eso es ke los veo y les pinto el dedo, por eso por las nalgas les 
pedorreo por eso omar chaparro huele tan feo mejor ke se lo fume 
como un garnijero nos van a aborrecer

gt1
e:------------------------------------|
B:------------------------------------|
G:------------------------------------|
D:-------------5----------------------|
A:-3--3-5-6-7-----3--3--0-0--1-1--2-2-|
E:------------------------------------|

gt2
e:--------------------------------------------|
B:--------------------------------------------|
G:----------------17--------------------------|
D:-10-10-12-13-14----10-10--------------------|
A:--------------------------12-12-13-13-14-14-|
E:--------------------------------------------|

just in case u wanna play both guitars at the same time
:-------------8----------------------|
:-1-1--3-4-5-----1-1-----------------|
:-------------5-------2--2--3-3--4-4-|
:------------------------------------|
:-3-3--5-6-7-----3-3--0--0--1-1--2-2-|
:------------------------------------|

chorus
vamos tokos a kagar a salir en teleshit 
gt1
e:------------------------------------|
B:------------------------------------|
G:-9-9-9-9-9-9-9-9-9------------------|
D:-9-9-9-9-9-9-9-9-9--7-7-7-7-7-7-7-7-|
A:-7-7-7-7-7-7-7-7-7--7-7-7-7-7-7-7-7-|
E:--------------------5-5-5-5-5-5-5-5-|

gt2
e:------------------------------------|
B:----5-----5-------------------------|
G:-4--4--4--4--5--4---2-2-2-2-2-2-2-2-|
D:-2--2--2--2--5--4---2-2-2-2-2-2-2-2-|
A:-2--2--2--2--3--2---0-0-0-0-0-0-0-0-|
E:------------------------------------|

nada de hacer getas todos saken la voz los de black & white
gt1
:----------------------------------------------3-3-3-3-3-3-3-3-|
:-----------------------------------1-1-1-1-1--3-3-3-3-3-3-3-3-|
:-----------------------------------2-2-2-2-2--0-0-0-0-0-0-0-0-|
:-8-8-8-8-8-8-8-8--5-5-5-5-5-5-5-5--2-2-2-2-2--0-0-0-0-0-0-0-0-|
:-8-8-8-8-8-8-8-8--5-5-5-5-5-5-5-5--0-0-0-0-0--2-2-2-2-2-2-2-2-|
:-6-6-6-6-6-6-6-6--3-3-3-3-3-3-3-3-------------3-3-3-3-3-3-3-3-|

gt2
e:----------------------------------------------3-3-3-3-3-3-3-3-|
B:----------------------------------------------3-3-3-3-3-3-3-3-|
G:-3-3-3-3-3-3-3-------------------2-2-2-2-2-2--0-0-0-0-0-0-0-0-|
D:-3-3-3-3-3-3-3--5-5-5-5-5-5-5-5--2-2-2-2-2-2--0-0-0-0-0-0-0-0-|
A:-1-1-1-1-1-1-1--5-5-5-5-5-5-5-5--0-0-0-0-0-0--2-2-2-2-2-2-2-2-|
E:----------------3-3-3-3-3-3-3-3---------------3-3-3-3-3-3-3-3-|

e:---------------------|
B:---------1---3-1---1-|
G:-------0---3-----3---|
D:---1-2---------------|
A:-3-------------------|
E:---------------------|

e:-----------|
B:-1---------|
G:-----------|
D:-----------|
A:-3---------|
E:-----------|


bueno esta es la kancion de la apuesta ke hicieron kon los de black & white, es la kancion
de mercurio dijieron ke la kancion se llamaba simplemente feo, ah y otra kosa...
putos por kitarle el sonido en la repeticion de la noche de este programa, vayanse a la verga!


made in hermosillo son.

Suggest correction
Give kudos to tab author, rate the tab!
1 2 3 4 5
comments
print report bad tab
guest
Wanna post a correction for this tab? Suggest correction