Oops, an error
Loading. Please wait.

The Revolution Will Not Be Televised Tab

by Molotov
119 views 1 this week
no commentswrite comment
1 2 3 4 5
3 more votes to show rating
add to favorites
launch autoscroll
font size
0
reset
how to read this tab
guitar tuner
×
Best way to learn
"The Revolution Will Not Be Televised"
Autoscroll
slow
fast
+/-
esc
set tempo
stop
Puse también las partituras de bajo q acompañan a la guitarra

Intro
E - E - G - A  x2

Solo bajo
E                                 G   A
No podrás quedarte en casa carnal,
E                                               G            A
no vas a poder enchufar, sintonizar, ni echarte pa'atras,
E                                               G
no podrás estar enganchado por la escuelita y lanzarte
                      A
por las chelas en los comerciales porque la
E                            G    A
revolución no se televisará

Entra guitarra Riff 1
E                                G           A              E
La revolución no será patrocinada por XEROX en 4 partes sin comerciales.
   G        A           E                G            A
La revolución no te mostrará fotos de Fox tocando una trompeta
E                        G              A
lidiando una carga por parte de Lopez Obrador,
E                        G              A
Ahumada, El niño verde para escuchar discos
E                         G                A
de Molotov confiscados en un santuario de Tepito.
  E                      G          A      E   G A
La revolución no se televisará

Riff 2
La revolución no te mostrará Casos de la Vida
Real con silvia pinal y no será protagonizada por
andrea legarreta, kuno becker, adal ramones y la
chilindrina. La revolución no te va a quitar el
mal aliento. La revolución no te quitará el acne.
La revolución no te hará lucir con 5 kilos menos
porq La revolución no se televisará

Intro en el verso
No va haber cortos de boby larios y niurka en su
nuevo depa en infomabid. El noticiero no podrá
predecir 48 horas antes quien de los candidatos
ganará las próximas elecciones.
Riff 3(muchas veces hasta el riff4)
La revolución no se televisará.

No va a haber cortos de policías abusando de su
poder. No va a haber cortos de diputables
enseñando como el diablo les trajo al mundo.
No va a haber fotos de un familiar tuyo muerto en
la frontera porq su gobierno le falló La
revolución no se televisará

Riff 4
Intro en el verso
Big Brother, la academia, Vida tv y otro rollo ya
no van a ser tan relevantes y a nadie le importará
si le tronaron el ele jota a la protagonista de la
novela de las 8 porq los mexicanos estarán en la

Riff 3
calle buscando un mejor mañana. No va a
haber cortos de los niños de la calle
flameados de resis ni de Martha Sahagún de Fox
sonandose la napia. La banda sonora no será
compuesta por Memo mendez Jr y cantado por mijares y yahir,
Estrella, Kabah ni Elefante.
Riff 1
La revolución no regresará después de unos comerciales para
                   Riff 5
apoyar el Teletón ni para como quitar las manchas
de la ropa y si tu también eres mexicano
Riff 1
no tendrás q preocuparte del tigre mutante, si
chocaste bien o del juego del señor Adame La
revolución no se toma con coca cola La revolución
no ayuda a eliminar gérmenes q causan el mal
aliento LA REVOLUCION SI TE VA A QUITAR LAS
MOLESTIAS Y EL MALESTAR CAUSADOS POR PARASITOS porque
La revolución no se televisará
Riff 4

Intro y verso bajo

    E                   G        A
G|-----------------------------------------|
D|-----------------------------------------|
A|-----00-2-4---------------5-5-------757--|
E|-00-0-----------------03-3-3----05-5-----|

Guitarra Riff 1:
   E         G    A              x8
e|---------------------------|
B|---------------------------|
G|---------------------------|
D|----------------7777-------|
A|-7-x-9-x-10-x-9------------|
E|---------------------------|

Guitarra Riff 2:
   E         G    A              x8
e|---------------------------|
B|---------------------------|
G|---------------------------|
D|----------------5555-------|
A|-5-x-7-x-8-x-7-------------|
E|---------------------------|

Guitarra Riff 3:
D|---------------|
A|-5-5-5-7-X-X-X-|
E|---------------|

Guitarra Riff 4:  x4

e|-0-0-0-------------3-3-3-3-xx--5-5-5-5---|
B|-0-0-0-------------3-3-3-3-xx--5-5-5-5---|
G|-1-1-1-2h4--4-2----4-4-4-4-xx--6-6-6-6---|
D|-2-2-2----------4--5-5-5-5-xx--7-7-7-7---|
A|-2-2-2-------------5-5-5-5-xx--7-7-7-7---|
E|-0-0-0-------------3-3-3-3-xx--5-5-5-5---|

Guitarra Riff 5 :
D|-2-2--5-5--7-7--9-9----7-7--5-5--2-2--|
A|-2-2--5-5--7-7--9-9----7-7--5-5--2-2--|
E|-0-0--3-3--5-5--7-7----5-5--3-3--0-0--|

Bajo Riff 5:
G|----------------------------------|
D|---2---5---7---9-----7---5---2----|
A|----------------------------------|
E|-0---3---5---7-----5---3---0------|
Suggest correction
Give kudos to tab author, rate the tab!
1 2 3 4 5
comments
print report bad tab
guest
You may want to rate the tab now too:
select rating
Wanna post a correction for this tab? Suggest correction