Oops, an error
Loading. Please wait.

Use It Or Lose It Bass Tab

107 views 1 this week
no commentswrite comment
1 2 3 4 5
3 more votes to show rating
add to favorites
launch autoscroll
font size
0
reset
guitar tuner
Autoscroll
slow
fast
+/-
esc
set tempo
stop
Help us to improve Ultimate-Guitar.com Take our survey!
×
RIFF BASE

G|------------------------------------------|
D|------------------------------------------|
A|------3-3-5-5-5-7-7------3-3--------------|
E|--5-5----------------5-5-----5-3-3---3-5--|
B|-----------------------------------5------|


CORO

G|-------------------------------|
D|-------------------------------|
A|-------------------------------|
E|--5----3-----------------------|
B|----5----3---------------------|


SI TU BAJO ES DE CUATRO CUERDAS PUEDES REEMPLAZAR

B|----5----| con E|----0----|
Y
B|----3----| con A|----5----|

SUERTE, DUDAS ESCRIBEME
Suggest correction
Give kudos to tab author, rate the tab!
1 2 3 4 5
comments
print report bad tab
guest
You may want to rate the tab now too:
select rating
Wanna post a correction for this tab? Suggest correction