Oops, an error
Loading. Please wait.

Use It Or Lose It Tab

version 1
version 1

Whole song

58 views 1 this week
no commentswrite comment
1 2 3 4 5
3 more votes to show rating
add to favorites
launch autoscroll
font size
0
reset
how to read this tab
guitar tuner
×
Best way to learn
"Use It Or Lose It"
Autoscroll
slow
fast
+/-
esc
set tempo
stop
esta es la parte del bajo
|--------------------------|                                        
|--------------------------|                                        
|--------------------------|
|-5--5-8--8-10--10-12-12---|

|--------------------------|
|--------------------------|
|--------------------------|
|-5--5-8--8-3--3-0-0-------|


|--------------------15-14-14------------------------|
|-----------------------------15---------------------|
|-12-14-14-12-14-12----------------12-14-14-12-14-12-|
|----------------------------------------------------|
|----------------------------------------------------|
|----------------------------------------------------|

If you gonna grab a mic...
|--------------------------------|
|----2----3-3-3-----2-------2----|
|----2----2-2-2-----2---2-2-2-2--|
|----2----0-0-0-----2---2-2-2-2--|
|-0-----0---------0---0----------|
|--------------------------------|


solo (nada mas se repite) 
|--------------------------------|
|--------------------------------|
|--------------------------------|
|-------7---5--------------------|
|-0-5-7---5----3-4-5----0-3-^--0-|
|---------------------3-----3----|

|-----------------------------------|
|--7-7-6-6-5-5----------------------|
|--------------7-7-6-6-5-5-6-6-7-7--|
|-----------------------------------|
Suggest correction
Give kudos to tab author, rate the tab!
1 2 3 4 5
comments
print report bad tab
guest
You may want to rate the tab now too:
select rating
Wanna post a correction for this tab? Suggest correction