Oops, an error
Loading. Please wait.

Use It Or Lose It Tab

version 2
version 2

Whole song

50 views 1 this week
no commentswrite comment
1 2 3 4 5
3 more votes to show rating
add to favorites
launch autoscroll
font size
0
reset
how to read this tab
guitar tuner
Autoscroll
slow
fast
+/-
esc
set tempo
stop
Help us to improve Ultimate-Guitar.com Take our survey!
×
|--------------------------------|
|--------------------------------|
|--------------------------------|
|--------------------------------|
|--0--0-3--3-5--5-7-7------------|
|--------------------------------|

|--------------------------------|
|--------------------------------|
|--------------------------------|
|--------------------------------|
|--0--0-3--3-5--5----------------|
|-----------------3-3------------|

Hear the rush coming out of your speackers
feel the power of the molotov clica
|--------------------------------|
|--------------------------------|
|--2--2-5--5-7--7-9-9------------|
|--2--2-5--5-7--7-9-9------------|
|--0--0-3--3-5--5-7-7------------|
|--------------------------------|

you don't speak unless your spoken to
be carefull what you say when you do
|--------------------------------|
|--------------------------------|
|--2--2-5--5-7--7-9-9------------|
|--2--2-5--5-7--7-9-9------------|
|--0--0-3--3-5--5-7-7------------|
|--------------------------------|

'cause you might find yourself en la calle
tu ya sabes que me vale
|--------------------------------|
|--------------------------------|
|--2--2-5--5-7--7-9-9------------|
|--2--2-5--5-7--7-9-9------------|
|--0--0-3--3-5--5-7-7------------|
|--------------------------------|

i'm gonna sit back with a cold kahuama
while my crew is out there bombing ya
|--------------------------------|
|--------------------------------|
|--2--2-5--5-7--7-9-9------------|
|--2--2-5--5-7--7-9-9------------|
|--0--0-3--3-5--5-7-7------------|
|--------------------------------|

there's a lesson, boy, that i'm gonna teach you
you mess with the bull you gonna get the salchicha
|--------------------------------|
|--------------------------------|
|--2--2-5--5-7--7-9-9------------|
|--2--2-5--5-7--7-9-9------------|
|--0--0-3--3-5--5-7-7------------|
|--------------------------------|

cause you know que sentiste pasos
if you think you can fake it boy you're an asshole
|--------------------------------|
|--------------------------------|
|--2--2-5--5-7--7-9-9------------|
|--2--2-5--5-7--7-9-9------------|
|--0--0-3--3-5--5-7-7------------|
|--------------------------------|

if you could take me out what's stopping ya
i'll pull out my gang cold pop pop pop ya
|--------------------------------|
|--------------------------------|
|--2--2-5--5-7--7-9-9------------|
|--2--2-5--5-7--7-9-9------------|
|--0--0-3--3-5--5-7-7------------|
|--------------------------------|

i'm giving you a chance so don't abuse it
if you got the skill use it or lose it
|--------------------------------|
|--------------------------------|
|--2--2-5--5-7--7-9-9------------|
|--2--2-5--5-7--7-9-9------------|
|--0--0-3--3-5--5-7-7------------|
|--------------------------------|

if you're gonna grab a mice, learn to use it
|--------------------------------|
|----2----3-3-3-----2---2-2-2-2--|
|----2----2-2-2-----2---2-2-2-2--|
|----2----0-0-0-----2---2-2-2-2--|
|-0-----0---------0---0----------|
|--------------------------------|

if you represent a crew, show and prove it
|--------------------------------|
|----2----3-3-3-----2---2-2-2-2--|
|----2----2-2-2-----2---2-2-2-2--|
|----2----0-0-0-----2---2-2-2-2--|
|-0-----0---------0---0----------|
|--------------------------------|

if you got a big side, learn to cruise it
|--------------------------------|
|----2----3-3-3-----2---2-2-2-2--|
|----2----2-2-2-----2---2-2-2-2--|
|----2----0-0-0-----2---2-2-2-2--|
|-0-----0---------0---0----------|
|--------------------------------|

if you wanna test this, learn to use it
|--------------------------------|
|----2----3-3-3-----2---2-2-2-2--|
|----2----2-2-2-----2---2-2-2-2--|
|----2----0-0-0-----2---2-2-2-2--|
|-0-----0---------0---0----------|
|--------------------------------|

|--------------------------------|
|--------------------------------|
|--------------------------------|
|--------------------------------|
|--0--0-3--3-5--5-7-7------------|
|--------------------------------|

|--------------------------------|
|--------------------------------|
|--------------------------------|
|--------------------------------|
|--0--0-3--3-5--5----------------|
|-----------------3-3------------|

out of the cut view el gringo tiro loco
i'm here to get the people prendido
|--------------------------------|
|--------------------------------|
|--2--2-5--5-7--7-9-9------------|
|--2--2-5--5-7--7-9-9------------|
|--0--0-3--3-5--5-7-7------------|
|--------------------------------|

so watcha wanna do
rap is not afraid of you
and neither homie is the molotov crew
|--------------------------------|
|--------------------------------|
|--2--2-5--5-7--7-9-9------------|
|--2--2-5--5-7--7-9-9------------|
|--0--0-3--3-5--5-7-7------------|
|--------------------------------|

So, in la cantina while I´m drinking my brew
if you wanna step to this, learn to lose it
|--------------------------------|
|--------------------------------|
|--2--2-5--5-7--7-9-9------------|
|--2--2-5--5-7--7-9-9------------|
|--0--0-3--3-5--5-7-7------------|
|--------------------------------|

'cause i'm gonna bruise ya, crack ya, end up on your back,
if you bitch steps in i won´t hesitate to smak her
|--------------------------------|
|--------------------------------|
|--2--2-5--5-7--7-9-9------------|
|--2--2-5--5-7--7-9-9------------|
|--0--0-3--3-5--5-7-7------------|
|--------------------------------|

so if can't take a dump get off the commode
and if you don't come correct jack hit the road.
|--------------------------------|
|--------------------------------|
|--2--2-5--5-7--7-9-9------------|
|--2--2-5--5-7--7-9-9------------|
|--0--0-3--3-5--5-7-7------------|
|--------------------------------|

'cause like a '57' chevy I'm gonna cruise ya,
you step in my way i'm gonna have to bruise ya
|--------------------------------|
|--------------------------------|
|--2--2-5--5-7--7-9-9------------|
|--2--2-5--5-7--7-9-9------------|
|--0--0-3--3-5--5-7-7------------|
|--------------------------------|

break you, partirte la madre
face down lying in the mother fuking calle
|--------------------------------|
|--------------------------------|
|--2--2-5--5-7--7-9-9------------|
|--2--2-5--5-7--7-9-9------------|
|--0--0-3--3-5--5-7-7------------|
|--------------------------------|


i'm giving you chance so don't abuse it
so if you got the skill use it or lose it.
|--------------------------------|
|--------------------------------|
|--2--2-5--5-7--7-9-9------------|
|--2--2-5--5-7--7-9-9------------|
|--0--0-3--3-5--5-7-7------------|
|--------------------------------|

if you're gonna grab a mice, learn to use it
|--------------------------------|
|----2----3-3-3-----2---2-2-2-2--|
|----2----2-2-2-----2---2-2-2-2--|
|----2----0-0-0-----2---2-2-2-2--|
|-0-----0---------0---0----------|
|--------------------------------|

if you represent a crew, show and prove it
|--------------------------------|
|----2----3-3-3-----2---2-2-2-2--|
|----2----2-2-2-----2---2-2-2-2--|
|----2----0-0-0-----2---2-2-2-2--|
|-0-----0---------0---0----------|
|--------------------------------|

if you got a big side, learn to cruise it
|--------------------------------|
|----2----3-3-3-----2---2-2-2-2--|
|----2----2-2-2-----2---2-2-2-2--|
|----2----0-0-0-----2---2-2-2-2--|
|-0-----0---------0---0----------|
|--------------------------------|

if you wanna test this, learn to use it
|--------------------------------|
|----2----3-3-3-----2---2-2-2-2--|
|----2----2-2-2-----2---2-2-2-2--|
|----2----0-0-0-----2---2-2-2-2--|
|-0-----0---------0---0----------|
|--------------------------------|

|-------------------------------------|
|-------------------------------------|
|--------3---0------------------------|
|----0-2---2--------------------------|
|--0-----------0-3-4-5-------3------3-|
|----------------------0-3-4---0-3-4--| x3

|-------------------------------------|
|-------------------------------------|
|--------3---0------------------------|
|----0-2---2--------------------------|
|--0----------------------------------|
|-------------------------------------|

|-------------------------------------|
|-------------------------------------|
|-------------------------------------|
|--7-7-6-6-5-5------------------------|
|--------------7-7-6-6-5-5-6-6-7-7----|
|-------------------------------------|
Suggest correction
Give kudos to tab author, rate the tab!
1 2 3 4 5
comments
print report bad tab
guest
You may want to rate the tab now too:
select rating
Wanna post a correction for this tab? Suggest correction