Oops, an error
Loading. Please wait.

Voto Latino Tab

version 2
version 2

Whole song

  • Other version is completely wrong and incomplete.
118 views 3 this week
no commentswrite comment
1 2 3 4 5
2 more votes to show rating
add to favorites
launch autoscroll
font size
0
reset
how to read this tab
guitar tuner
Autoscroll
slow
fast
+/-
esc
set tempo
stop
Help us to improve Ultimate-Guitar.com Take our survey!
×
Author
Difficulty
novice
About this tab version
Other version is completely wrong and incomplete. Was this info helpful? Yes No
[Intro]

e|--------------------------------------|
B|--------------------------------------|
G|--x----------------------------3------|
D|----x------x----5----x-------5----5---|
A|------x----x--5---5--x--3L------------|
E|--------3--x---------x----------------|

e|-------------------------------------------------|
B|-------------------------------------------------|
G|--x--------------------------5-5-5--3------------|
D|----x------x----5----x-----------------3h4h5-----|
A|------x----x--5---5--x--3L-----------------------|
E|--------3--x---------x---------------------------|

"You start to run..."

e|-------------------------|------|
B|------8-8-11-8-----------|------|
G|------7-7--7-7--x--5-----|------|
D|----------------x--5-----|------|
A|----------------x-(3)----|------|
E|--3----------------------|------|

e|-------------------------|------------------|
B|------8-8-11-8-----------|--11-11-11---11---|
G|------7-7--7-7--x--5-----|---x--x--x----x---|
D|--x-------------x--5-----|---8--8--8----8---|
A|--x-------------x-(3)----|------------------|
E|--x----------------------|------------------|

e|-------------------------|------|
B|------8-8-11-8-----------|------|
G|------7-7--7-7--x--5-----|------|
D|--x-------------x--5-----|------|
A|--x-------------x-(3)----|------|
E|--x----------------------|------|

e|-------------------------|------------------|
B|------8-8-11-8-----------|--11-11-11---11---|
G|------7-7--7-7--x--5-----|---x--x--x----x---|
D|--x-------------x--5-----|---8--8--8----8---|
A|--x-------------x-(3)----|------------------|
E|--x----------------------|------------------|

"Que sentirias si muere en tus brazos..."

e|-----------------------------|------------------------|
B|-----------------------------|------------------------|
G|-----------------------------|------------------------|
D|------5--5-5-5--5--3--x------|--x----------3----------|
A|----------------------x--3L--|--x--3-3-3h5----5h3h0---|
E|--3-------------------x------|--x---------------------| x4

"Voto Latino!!"

      V     V        V      V        V     V
e|----------------|-------------|----------------|-----------|
B|----7-----7-----|--5------5---|----7-----7-----|-----------|
G|----7-----7-----|--5------5---|----7-----7-----|-----------|
D|----6-----6-----|--4------4---|----6-----6-----|-----------|
A|----7-----7-----|--5------5---|----7-----7-----|-----------|
E|----------------|-------------|----------------|-----------| x2

"Pinta tu madre patria de colores..."

e|-------------------------|------|
B|------8-8-11-8-----------|------|
G|------7-7--7-7--x--5-----|------|
D|----------------x--5-----|------|
A|----------------x-(3)----|------|
E|--3----------------------|------|

e|-------------------------|------------------|
B|------8-8-11-8-----------|--11-11-11---11---|
G|------7-7--7-7--x--5-----|---x--x--x----x---|
D|--x-------------x--5-----|---8--8--8----8---|
A|--x-------------x-(3)----|------------------|
E|--x----------------------|------------------|

e|-------------------------|------|
B|------8-8-11-8-----------|------|
G|------7-7--7-7--x--5-----|------|
D|--x-------------x--5-----|------|
A|--x-------------x-(3)----|------|
E|--x----------------------|------|

e|-------------------------|------------------|
B|------8-8-11-8-----------|--11-11-11---11---|
G|------7-7--7-7--x--5-----|---x--x--x----x---|
D|--x-------------x--5-----|---8--8--8----8---|
A|--x-------------x-(3)----|------------------|
E|--x----------------------|------------------|

"Que sentirias si cae junto a ti..."

e|-----------------------------|------------------------|
B|-----------------------------|------------------------|
G|-----------------------------|------------------------|
D|------5--5-5-5--5--3--x------|--x----------3----------|
A|----------------------x--3L--|--x--3-3-3h5----5h3h0---|
E|--3-------------------x------|--x---------------------| x4

"Voto Latino!!"

      V     V        V      V        V     V
e|----------------|-------------|----------------|-----------|
B|----7-----7-----|--5------5---|----7-----7-----|-----------|
G|----7-----7-----|--5------5---|----7-----7-----|-----------|
D|----6-----6-----|--4------4---|----6-----6-----|-----------|
A|----7-----7-----|--5------5---|----7-----7-----|-----------|
E|----------------|-------------|----------------|-----------| x2

Solo:

e|------------------------------------------|----------------------------|
B|------------------------------------------|----------------------------|
G|------------------------------------------|-----------------------2L---|
D|------------------------------------------|--------x--5----------------|
A|-------------------------------2-----2----|--3-----x-----3--2--0-------|
E|-----3M-3M-3M----3---5---5----------------|----------------------------|

e|-------------------------------|-------------------------------|
B|-------------------------------|-------------------------------|
G|---0---0h-2h-0-----------------|-------------------------------|
D|-------------------2---3---2---|--5--------------------3h-5----|
A|-------------------------------|-------5---2-----5-------------|
E|-------------------------------|-------------------------------|

e|-----------------------|--------------------------|
B|-----------------------|--------------------------|
G|-----------------------|--------------------5L----|
D|---3-----2--3--2-------|--------x--2---5----------|
A|------------------5----|--3-----x-----------------|
E|-----------------------|--------------------------|

e|--------------------------|--3~---|--3~---|--------------------|
B|--------------------------|--3~---|--3~---|----3---------------|
G|-----3h-2h-3--2-----0-----|--2~---|--x~---|------------2-------|
D|--------------------------|-------|--3~---|------0-------------|
A|--------------------------|-------|-------|---------------3L---|
E|--------------------------|-------|-------|--------------------|

e|----------------------|---------------------------------------------|
B|----------------------|---------------------------------------------|
G|----------------------|---------------------------------------------|
D|----------------------|---------------------------------------------|
A|--------------3--3M---|--3M-----------------------------2---2-------|
E|-----3--3--3----------|--------3M-3M-3M---3---5---5-----------------|

e|----------------------------|-------------------------------|
B|----------------------------|-------------------------------|
G|-----------------------2L---|---0---0h-2h-0-----------------|
D|--------x--5----------------|-------------------2---3---2---|
A|--3-----x-----3--2--0-------|-------------------------------|
E|----------------------------|-------------------------------|

e|-------------------------------|----------------------------|
B|-------------------------------|----------------------------|
G|-------------------------------|----------------------------|
D|--5--------------------3h-5----|-----3-----2--3--2----------|
A|-------5---2-----5-------------|--------------------5-------|
E|-------------------------------|----------------------------|

e|----------------------------|----------------------------|
B|----------------------------|----------------------------|
G|----------------------------|----------------------------|
D|--------x-------------------|----------------------------|
A|--3-----x-----------3--3----|--3--3-----3--2--2--0--0----|
E|-----------3--3--3----------|----------------------------|

"Voto Latino!!"

      V     V        V      V        V     V
e|----------------|-------------|----------------|-----------|
B|----7-----7-----|--5------5---|----7-----7-----|-----------|
G|----7-----7-----|--5------5---|----7-----7-----|-----------|
D|----6-----6-----|--4------4---|----6-----6-----|-----------|
A|----7-----7-----|--5------5---|----7-----7-----|-----------|
E|----------------|-------------|----------------|-----------| x2
      V     V        V      V        V     V        V      V
e|----------------|-------------|----------------|-------------|
B|----7-----7-----|--5------5---|----7-----7-----|--5------5---|
G|----7-----7-----|--5------5---|----7-----7-----|--5------5---|
D|----6-----6-----|--4------4---|----6-----6-----|--4------4---|
A|----7-----7-----|--5------5---|----7-----7-----|--5------5---|
E|----------------|-------------|----------------|-------------|
      V     V        V      V        V     V
e|----------------|-------------|----------------|--------|
B|----7-----7-----|--5------5---|----7-----7-----|--5L----|
G|----7-----7-----|--5------5---|----7-----7-----|--5L----|
D|----6-----6-----|--4------4---|----6-----6-----|--4L----|
A|----7-----7-----|--5------5---|----7-----7-----|--5L----|
E|----------------|-------------|----------------|--------|

Ultimo riff:

e|----------------------------|--------------||
B|----------------------------|---7--7--7L---||
G|----------------------------|---7--7--7L---||
D|-------------------4--5-----|---6--6--6L---||
A|----5--4--5--6--7--------7--|---7--7--7L---||
E|----------------------------|--------------||


************************************

|x    Nota Muerta
|(n)  Nota fantasma
|M    Palm mute
|V    Stacatto (se toca rapido hacia arriba)
|L    Se deja sonar
|h    Hammer-on/Pull-off
|~    Vibrato

************************************
Suggest correction
Give kudos to tab author, rate the tab!
1 2 3 4 5
comments
print report bad tab
guest
You may want to rate the tab now too:
select rating
Wanna post a correction for this tab? Suggest correction