Oops, an error
Loading. Please wait.

Neon Lights Bass Tab

19 views 1 this week
no commentswrite comment
1 2 3 4 5
3 more votes to show rating
add to favorites
launch autoscroll
font size
0
reset
guitar tuner
Autoscroll
slow
fast
+/-
esc
set tempo
stop
Help us to improve Ultimate-Guitar.com Take our survey!
×
Author
Standard tuning E-A-D-G
First tab so be nice:) 

Starts 00:30
"As the street sing her"
|----------------------------|
|----------------------------|
|----------------------------|
|1-1--1-1---1---1---1-1-1-1--|

Chorus
|------------------------------------------------------------------------------------|
|------------------------------------------------------------------------------------|
|1---1----1---1--1-----------------------------6---6----6---6---6--------------------|
|-------1---1--------4\--2---2--x--2--2--2------------6---6-------6\---2---2--x--2---|

Verse
|--------------------------------------------------|-------------------------------------------------|
|--------------------------------------------------|-------------------------------------------------|
|1-------------------6---------------8--8--8--8----|1-------------------6---------------8-8-----8-8--|
|------------------------------------------------1-|-------------------------------------------------|

|---------------------------------------------------------------|
|----------------------8h10p8-----------------------------------|
|1-------------------8-------8h10p8--6------------8--8--8--8----|
|-------------------------------------------------------------1-|

|---------------------------------------------------------------|
|---------------------------------------------------------------|
|1-------------------6----------------------------8-8-----8-8---|
|---------------------------------------------------------------|

Fill to Chorus
|-----------------------------|
|-----------------------------|
|-----------------------------|
|1-1---1-1---1/5----5-5-5-5---|

Chorus
|---------------------------------------------------------------------------------------|
|---------------------------------------------------------------------------------------|
|-------------------------------------------6---6----6---6--6---------------------------|
|6---6--x--6--6--6--6\--2---2---x--2--2--2/--------6---6-------6\---2---2--x--2--2--2--4|

|---------------------------------------------------------------------------------------|
|---------------------------------------------------------------------------------------|
|-------------------------------------------6---6----6---6------------------------------|
|6---6--x--6--6--6--6\--2---2---x--2--2--2/--------6--------6\-----2---2--x--2--2--2----|

Bridge 
Time notes with drums.
|------------------------------------------------------------------------------------------------------------|
|--------------------------------------------44------4---3---------------------------------------------------|
|------------------------------------------------------------------------------------------------------------|
|1--1--1--x--1--x--1-1-1--x-1--2--2--2--x-2-2--2-3-4---1----1---1--1-4-4-4--4-4--2--2--2--2-4-4-4-4-4-4-4-4-6|
                                                       ^ ^  ^
                                                  might pay back    with a voice like that

|---------------------|------------------------------------------------------------------|
|---------------------|------------------------------------------------------------------|
|-----Orchestral------|----------------------6---6----6---6--6---------------------------|
|--------part---------|--2---2---x--2--2--2/--------6---6-------6\---2---2--0-2--2---x-4-|

|---------------------|--10-8----8-10----------------------------------------------------|
|---------------------|-------11------8\-------------------------------------------------|
|-----Reggae-part-----|-------------------6------------------------8---------------------|
|---------------------|------------------------------------------------------------------|

Fill to Chorus
|------------------------------|
|------------------------------|
|------------------------------|
|1-1---1-1--1-1/5----5-5-5-5---|

Chorus
|-------------------------------------------------------------------------------------------|
|-------------------------------------------------------------------------------------------|
|----------------------------------------------6---6-----6---6--6---------------------------|
|6---6--x--6--6--6--4\--2---2---x--2--2--2--4/--------6-----------6\---2---2--x--2--2--2--4-|

|----------------------------------------------------------------------------------------|
|----------------------------------------------------------------------------------------|
|----------------------------------------------6---6----6---6-6--------------------------|
|6---6--x--6--6--6--6\--2---2---x--2--2--2--4/--------6---6-----6\-----2---2--x--2--2----|

Outro
|Drum-||--------------------------------------------------------------------------------------|
|fill-||--------------------------------------------------------------------------------------|
|-----||----------------------------------------------6---6----6---6--------------------------|
|6----||6---x--6--6--------6\--2---2---x--2--2-----4/--------6---6-----6\-----2---2--x--2--2--|

|-----||------------------------------------------------------------------------------------------|
|-----||------------------------------------------------------------------------------------------|
|1---1||1--------1---1--1-----------------------------6---6----6---6-6-9--------------------------|
|-----||-------1---1-------4\---2---2---0-2-0-2-2--4/--------6---6------------2---2--x--2--2--4--4|

|-------------------------------------------------------------------------------------------------|
|-------------------------------------------------------------------------------------------------|
|-----------------------------------------------------6---6----6---6-6----------------------------|
|6---6--6------x-6-x-6--6--4\--2---2---x--2-0-2-2--4/--------6---6-----6\-----2---2--x--2--2--4--4|
















-
Suggest correction
Give kudos to tab author, rate the tab!
1 2 3 4 5
comments
print report bad tab
guest
You may want to rate the tab now too:
select rating
Wanna post a correction for this tab? Suggest correction