Oops, an error
Loading. Please wait.

Death Cup tab

version 2
version 2

Whole song

  • Tried to tab from live little elephant video.
2,113 views 126 this week
1 commentread comment
1 2 3 4 5
x 4
add to favorites
×
Save as Personal and add changes to this tab that will be seen only by you. Learn more ›
×
You can save this tab as Personal to edit and correct it or add notes. All changes will be seen only by you. Learn more »
launch autoscroll
font size
0
reset
how to read this tab
guitar tuner
edit
Autoscroll
slow
fast
+/-
esc
set tempo
stop
About this tab version
Tried to tab from live little elephant video. Was this info helpful? Yes No
mom jeans.
death cup - capo 1
tab relevant to capo 

These chords used for the major riff through song:

x       x                        x
3       3                        4
4       4                        4
5       5                        5                Just pick the chords like below:
5       3                        3
x       x   (1st time)           x (2nd time)

[Intro/verse]
e|-------------------------|--------------------------------------------------|
B|----3--------------------|--------3-----------------------------------------|
G|---4----4----------------|------4------4------------------------------------|
D|--5---5---5-5/7/5--------|---- 5-----5---5--5/7/5---------------------------|
A|-5-----------------x2----|----3-----------------------x2--------------------|
E|-------------------------|--------------------------------------------------|


e|-------------------------|-------------------------------------------------------|
B|----3--------------------|--------3--------------------4-------------------------|
G|---4----4----------------|------4-----4---------------4----4---------------------|
D|--5---5---5-5/7/5--------|---- 5----5---5--5/7/5-----5---5----5--5/7/5-----------|
A|-5-----------------x2----|----3---------------------3----------------------------|
E|-------------------------|-------------------------------------------------------|
repeat verse for a while - this is the majority of the song

[Pre-Chorus]
e|---3--------------=---------------------|
B|---4------------------------------------|
G|---5------------------------------------|
D|---5------------------------------------|
A|---3---(build up to louder strumming)---|
E|---x------------------------------------|

[Chorus]
e|----3-------------------------------------------------3------------------|
B|----3-------------------------------------------------3------------------|
G|----0-------------------------------------------------0------------------|
D|----0-------{Then palm mute until next chord}---------0------------------|
A|----2-------------------------------------------------2------------------|
E|----3--x3------------PM-------------------------------3--x3----PM--------|

e|---3--------------3-------x-x-x-x-x-x-----------------------------------------------------3---------|
B|---3--------------4-------x-x-x-x-x-x-----------------------------------------------------4---------|
G|---0--------------3-------x-x-x-x-x-x-----------------------------------------------------3---------|
D|---2--------------5-------x-x-x-x-x-x-----------------------------------------------------5---------|
A|---3--------------3-------x-x-x-x-x-x-----------------------------------------------------3---------|
E|---x---x3---PM----x--x3---x-x-x-x-x-x--(strum a bunch of dead notes until next chord)-----x--x 3----|

e|----3-------------------------------------------------3------------------|
B|----3-------------------------------------------------3------------------|
G|----0-------------------------------------------------0------------------|
D|----0-------{Then palm mute until next chord}---------0------------------|
A|----2-------------------------------------------------2------------------|
E|----3--x3------------PM-------------------------------3--x3----PM--------|

e|---3--------------3-------x-x-x-x-x-x-----------------------------------------------------3---------|
B|---3--------------4-------x-x-x-x-x-x-----------------------------------------------------4---------|
G|---0--------------3-------x-x-x-x-x-x-----------------------------------------------------3---------|
D|---2--------------5-------x-x-x-x-x-x-----------------------------------------------------5---------|
A|---3--------------3-------x-x-x-x-x-x-----------------------------------------------------3---------|
E|---x---x3---PM----x--x3---x-x-x-x-x-x--(strum a bunch of dead notes until next chord)-----x--x 3----|

[Verse]
e|-------------------------|--------------------------------------------------|
B|----3--------------------|--------3-----------------------------------------|
G|---4----4----------------|------4------4------------------------------------|
D|--5---5---5-5/7/5--------|---- 5-----5---5--5/7/5---------------------------|
A|-5-----------------x2----|----3-----------------------x2--------------------|
E|-------------------------|--------------------------------------------------|


e|-------------------------|-------------------------------------------------------|
B|----3--------------------|--------3--------------------4-------------------------|
G|---4----4----------------|------4-----4---------------4----4---------------------|
D|--5---5---5-5/7/5--------|---- 5----5---5--5/7/5-----5---5----5--5/7/5-----------|
A|-5-----------------x2----|----3---------------------3----------------------------|
E|-------------------------|-------------------------------------------------------|    x8

[Bridge]
e|---3----------------------------------3-------------------------------|
B|---4----------------------------------3-------------------------------|
G|---5----------------------------------4-------------------------------|
D|---5----------------------------------5-------------------------------|   then into this chord progression
A|---3----------------------------------5-------------------------------|      please listen for pattern
E|-- x-(x3)-(then palm mute a bunch)----3-(x3)-(then palm mute a bunch)-| x2

e|--x----------x----------3---------3--------------------------------------------|
B|--x----------x----------5---------4--------------------------------------------|
G|--x----------4----------4---------3--------------------------------------------|
D|--2----------4----------5---------5--------------------------------------------|   
A|--2----------2----------3---------3--------------------------------------------|
E|--x--(x16)---x--(x16)---x--(x16)--x--(x16)-------------------------------------|

e|-------------------------|
B|----3--------------------|
G|---4----4----------------|
D|--5---5---5-5/7/5--------|
A|-5-----------------------|
E|-------------------------|

then into screams just strumming G chord

    AHHH    AHHHH     AHHH         AHHHHHHH
e|---3--------3---------3------------3---------------------------------------------------------|
B|---3--------3---------3------------3---------------------------------------------------------|
G|---0--------0---------0------------0---------------------------------------------------------|
D|---0--------0---------0------------0---------------------------------------------------------|
A|---2--------2---------2------------2---------------------------------------------------------|
E|---3--(x3)--3--(x3)---3--(x3)------3--(x3)---------------------------------------------------|

Immediately into this chord progression

e|-3---------|---3--------|--x--------|--x--------|--3--------|---3--------------------|
B|-3---------|---3--------|--x--------|--x--------|--5--------|---4--------------------|
G|-0---------|---0--------|--x--------|--4--------|--4--------|---3--------------------|  just go nuts
D|-0---------|---2--------|--2--------|--4--------|--5--------|---5--------------------|   strumming these 
A|-2---------|---3--------|--2--------|--2--------|--3--------|---3--------------------|
E|-3--(x16)--|---x--(x16)-|--x--(x16)-|--x--(x16)-|--x--(x16)-|---x--(x16)-------------|

[Outro]
e|-------------------------|--------------------------------------------------|
B|----3--------------------|--------3-----------------------------------------|
G|---4----4----------------|------4------4------------------------------------|
D|--5---5---5-5/7/5--------|---- 5-----5---5--5/7/5---------------------------|
A|-5-----------------x2----|----3-----------------------x2--------------------|
E|-------------------------|--------------------------------------------------|


e|-------------------------|-------------------------------------------------------|
B|----3--------------------|--------3--------------------4-------------------------|
G|---4----4----------------|------4-----4---------------4----4---------------------|
D|--5---5---5-5/7/5--------|---- 5----5---5--5/7/5-----5---5----5--5/7/5-----------|
A|-5-----------------x2----|----3---------------------3----------------------------|
E|-------------------------|-------------------------------------------------------|

End on G chord
e|---3------------------------------------------------------------------------|
B|---3------------------------------------------------------------------------|
G|---0------------------------------------------------------------------------|
D|---0------------------------------------------------------------------------|
A|---2------------------------------------------------------------------------|
E|---3------------------------------------------------------------------------|



************************************

| /  Slide up
| x  Dead note
 

************************************

            
            
Suggest correction
Creating personal tab
Creating personal tab
You can edit any tab online and save it as your Personal.

You can edit, replace or remove any tab part or add personal notes – all changes will be seen only by you.

Personal tabs can be accessed anytime from any device, even offline.
Learn more »
comments
print report bad tab
1 comment total.
+1 reply
ghostygamingj1 10 May 21, 2017 08:27 PM

Much more accurate than the other one. Thanks!

guest
You may want to rate the tab now too:
select rating
Wanna post a correction for this tab? Suggest correction