Oops, an error
Loading. Please wait.

Alibis tab

version 1
version 1

Whole song

by Mona
1,196 views 1 this week
1 commentread comment
1 2 3 4 5
2 more votes to show rating
add to favorites
×
Save as Personal and add changes to this tab that will be seen only by you. Learn more ›
×
You can save this tab as Personal to edit and correct it or add notes. All changes will be seen only by you. Learn more »
launch autoscroll
font size
0
reset
how to read this tab
guitar tuner
edit
Autoscroll
slow
fast
+/-
esc
set tempo
stop
Difficulty
intermediate
-----------------------------------------------------------------------------
                             ALIBIS - Mona
-----------------------------------------------------------------------------
Tabbed by:Dariusz
Email:none

Tuning: standard

Below riff played during intro and chorus:

    D                         D7

E----------------------------------------------|
H----------------------------------------------|
G--------7-----------7-----------5-----------5-|
D-----7-----7-----7-----------7-----7-----7----|
A--5-----------5-----------5-----------5-------|
E----------------------------------------------|


    G
E----------------------------------------------|
H----------------------------------------------|
G--------4-----------4-----------4-----------4-|
D-----5-----5-----5-----5-----5-----5-----5----|
A----------------------------------------------|
E--3-----------3-----------3-----------3-------|

Play the same chords during verses. You can also try to use open D / D7 / G chords.
Not sure about the bridge after 2:04...But above chords/tab are basically thoe whole song.

            
            
Suggest correction
Creating personal tab
Creating personal tab
You can edit any tab online and save it as your Personal.

You can edit, replace or remove any tab part or add personal notes – all changes will be seen only by you.

Personal tabs can be accessed anytime from any device, even offline.
Learn more »
Give kudos to tab author, rate the tab!
1 2 3 4 5
comments
print report bad tab
1 comment total.
0 reply
Dariusz19 10 Nov 08, 2011 10:57 AM

Let me correct myself:
Intro/chorus:

E---------------------------------------------
H--------3-----------3------------------------
G--------------------------------5-----------5
D-----4-----4-----4-----------4-----4-----4---
A--5-----------5-----------5-----------5------
E---------------------------------------------

E---------------------------------------------
H---------------------------------------------
G--------4-----------4-----------4-----------4
D-----5-----5-----5-----5------5-----5-----5--
A--5-----------5-----------5-----------5------
E---------------------------------------------

capo on the 2nd fret:

C C7 F

no capo and
above tab + chords: D D7 G

guest
Wanna post a correction for this tab? Suggest correction