Oops, an error
Loading. Please wait.

Special Alibis tab

by Mona
1,337 views 1 this week
2 commentsread comments
1 2 3 4 5
2 more votes to show rating
add to favorites
×
Save as Personal and add changes to this tab that will be seen only by you. Learn more ›
×
You can save this tab as Personal to edit and correct it or add notes. All changes will be seen only by you. Learn more »
launch autoscroll
font size
0
reset
how to read this tab
guitar tuner
edit
Autoscroll
slow
fast
+/-
esc
set tempo
stop
Author
Difficulty
Intro/Chorus
e|-------------------------------------------------------------------------|
B|-------------------------------------------------------------------------|
G|----7---7---5---5---4---4---4---4----------------------------------------|
D|---4-4-4-4-4-4-4-4-4-4-4-4-4-4-4-4---------------------------------------|
A|--5---5---5---5---5---5---5---5------------------------------------------|
E|-------------------------------------------------------------------------|


barre chords!!!
verse
g A h D C
(g A h)

Chorus

verse

Bridge
G D C D
(G D C)
Chorus

            
            
Suggest correction
Creating personal tab
Creating personal tab
You can edit any tab online and save it as your Personal.

You can edit, replace or remove any tab part or add personal notes – all changes will be seen only by you.

Personal tabs can be accessed anytime from any device, even offline.
Learn more »
Give kudos to tab author, rate the tab!
1 2 3 4 5
comments
print report bad tab
2 comments total.
0 reply
anestrin 10 Apr 02, 2012 09:36 AM

Which cord is h?

0 reply
tojt 31 Nov 19, 2012 09:27 AM

e|--7---------------|
B|--7---------------|
G|--7---------------|
D|--9---------------|
A|--9---------------|
E|--7---------------|

guest
You may want to rate the tab now too:
select rating
Wanna post a correction for this tab? Suggest correction