Oops, an error
Loading. Please wait.

Cosita Tab

20 views 1 this week
no commentswrite comment
1 2 3 4 5
3 more votes to show rating
add to favorites
launch autoscroll
font size
0
reset
how to read this tab
guitar tuner
×
Best way to learn
"Cosita"
Autoscroll
slow
fast
+/-
esc
set tempo
stop
Mi primera Transcripción, espero que les guste.
Cualquier duda, sugerencia o saludo
escriban a Pablo_tesio@


Los acordes utilizados son:


A                E                D                Dm
  5                7                5                5
|-x-|---|---|    |-x-|---|---|    |-x-|---|---|    |-x-|---|---|
|-x-|---|---|    |---|---|-x-|    |---|---|-x-|    |---|-x-|---|
|---|-x-|---|    |---|---|-x-|    |---|---|-x-|    |---|---|-x-|
|---|---|-x-|    |---|---|-x-|    |---|---|-x-|    |---|---|-x-|
|---|---|-x-|    |-x-|---|---|    |-x-|---|---|    |-x-|---|---|
|-x-|---|---|    |-x-|---|---|    |-x-|---|---|    |-x-|---|---|


Intro:

|-------5-----------|-------5-----------|
|------(5)--5h7--5--|------(5)--5h7--5--|
|--5h6--------------|--5h6--------------|
|-------------------|-------------------|
|-------------------|-------------------|
|-------------------|-------------------|

|-------------------|-------------------|
|-------5---7---5---|-------5---7---5---|
|-------------------|-------------------|
|--5h6--------------|--5h6--------------|
|-------------------|-------------------|
|-------------------|-------------------|

|-------------------|-------------------|
|-------7---9---7---|-------7---9---7---|
|-------------------|-------------------|
|--5h7--------------|--5h7--------------|
|-------------------|-------------------|
|-------------------|-------------------|


              A
Adonde estabas?
                      E
Adonde estabas cosita?
                   D              Dm
El mundo no proveía seras un sueño
              A
Adonde estabas?
                     E
Adonde estabas cosita?
                    D              Dm
Solo con verte quiero agradecerte

Porque a creer volví.


Coro:

A
Nada nada se acaba al fin
E
Where were you little thing?
   D               Dm
I ask for an angel

And you come to me.


Repite Intro.

              A
Adonde estabas?
                     E
Cosita sos mi sorpresa
               D                        Dm
Cuando te vi besar la cerveza salió el sol para mi

Adonde estabas?
A                     E
Adonde estabas cosita?
                 D                 Dm
El mundo no proveía seras un sueño.

Sweet little thing.


Coro:

A
Nada nada se acaba al fin
E
Where were you little thing?
   D               Dm
I ask for an angel

And you come to me.


A
y no más, no más, no más
                 D
no más canciones tristes
     A
y no más, no más, no más
       Dm
no mas canciones de dolor


A/E/D/Dm X2


Coro:

A
Nada nada se acaba al fin
E
Where were you little thing?
   D               Dm
I ask for an angel

And you come to me.


Repite Intro y termina en A.
Suggest correction
Give kudos to tab author, rate the tab!
1 2 3 4 5
comments
print report bad tab
guest
You may want to rate the tab now too:
select rating
Wanna post a correction for this tab? Suggest correction