Oops, an error
Loading. Please wait.

What Do You Want From Me Chords

version 1
version 1

Whole song

Interactive

by Monaco
41,528 views 6 this week
3 commentsread comments
1 2 3 4 5
x 9
add to favorites
launch autoscroll
font size
0
reset
transpose
0
reset
simplify chords
display chords
guitar tuner
×
Best way to learn
"What Do You Want From Me"
Autoscroll
slow
fast
+/-
esc
set tempo
stop
#----------------------------------PLEASE NOTE---------------------------------#
#This file is the author's own work and represents their interpretation of the #
#song. You may only use this file for private study, scholarship, or research. #
#------------------------------------------------------------------------------#
#

Date: Thu, 11 Dec 1997 22:12:34 +0000 (GMT)
From: Elliot Whiting 
Subject: CRD:m/monaco/What_do_you_want_from_me.crd

Song:What do you want from me?
Band:Monaco
Transcribed by:Elliot Whiting (ellw@hotmail.com)

Bass intro:(use a bit of chorus effect)
G|------------------------------------|
D|------------------------------------|
A|----3---3---3-5-7-5-3-5-7-5-3-2-3-5-|
E|-5----5---5-------------------------|

Band in ('Sha la la' )
 | Dm | Am | C | G | x2

Verse:
 Dm                               Am
  There is one thing, that I would die for,
 Dm                     Am
  It's when you say, my life is in your hands,
 F                       C/E    Am
  Cuz when you're near me, your love is all I need
 F                    C/E
  Now I can't imagine...

Chorus:
              Dm             Am               C        G
  What do you want from me?: It's not how it used to be.
                   Dm        Am       C  G
  You're taking my life away: ruining e-verything.

Repeat with 'Sha la la' backing

Verse 2:
 Dm                 Am
  Give me something, I can rely on.
 Dm                 Am
  Far away from, the life that I once knew.
 F               C/E            Am
  'What does it matter?',that's all I have to say.
 F                 C/E
  And I can't imagine...

Chorus:
               Dm            Am               C        G
  What do you want from me?: It's not how it used to be.
                  Dm         Am       C  G
  You're taking my life away: ruining e-verything.

Repeat Chorus

Sha la la on it's own

Piano +bass solo:
 | F | Am | F | Am | F | G F | E D | E A | x2

Rock (Guitar solo):
 | Am | Dm | F | x2

Keyboard solo:
 | Am | C | C/E | G | x2

Chorus x3 and fade

That's it.

Mail me with comments or requests,
Elliot

ellw@hotmail.com

______________________________________________________
Get Your Private, Free Email at http://www.hotmail.com
Suggest correction
comments
print report bad tab
3 comments total.
+1 reply
thenewmashina 10 Feb 02, 2007 01:44 AM

awesome tab, just a minor correction on the bass, instead of
G|------------------------------------|
D|------------------------------------|
A|----3---3---3-5-7-5-3-5-7-5-3-2-3-5-|
E|-5----5---5-------------------------|

it should be
G|------------------------------------|
D|------------------------------------|
A|----3---3---3-5-7-5-3-5-7-5-3-2---0-|
E|-5----5---5---------------------3---|

+1 reply
sir-psycho-sexy 31 Feb 25, 2010 10:49 AM

i play the solo something like this....

keys bit

e|------------------------------------|
B|-1-----0-1-3-1----5-3-1-0-----------|
G|-2---2-------2--------------repeat--|
D|-3-----------2--------------a-few---|
A|-3-----------0--------------times---|
E|-1----------------------------------|

guitar heavy distortion
e|------------------------------------|
B|------------------------------------|
G|------------------------------------|
D|---2-2-2--7/9/7-5--7/9/7-5-4-5-2--x2|
A|---0-3-0--5/7/5-3--5/7/5-3-2-3-0----|
E|-3----------------------------------|

doesn't sound perfect but no one else has posted any better!

0 reply
ufl 343 Oct 05, 2010 08:41 AM

In the chorus, F instead of Am.

guest
You may want to rate the tab now too:
select rating
Wanna post a correction for this tab? Suggest correction