Oops, an error
Loading. Please wait.

Te Quiero Igual Que Ayer Tab

185 views 1 this week
no commentswrite comment
1 2 3 4 5
3 more votes to show rating
add to favorites
launch autoscroll
font size
0
reset
how to read this tab
guitar tuner
Autoscroll
slow
fast
+/-
esc
set tempo
stop
[espero que te guste Rosa!]


[en 1/2 tono bemol]

[INTRO]

   A9             G#m7              F#m7               F#m G#m A B7 
eb-----5-------|------4-------4--|----22---0-----0---|---------------------
Bb---7---5-----|----5---5-7-5----|-------2---2-------|--2--0---2-4---------
Gb-6--------66-|--4--------------|--2----------2-----|--2--1---2-4---------
Db-------------|-----------------|-------------------|---------------------
Ab-0-----------|-----------------|-------------------|---------------------
Eb-------------|--4--------------|--2----------------|---------------------

                                          ---------------------
                                          --2--4---5-7---------
                                          --2--4---6-8---------
                                          ---------------------
                                          ---------------------
                                            ---------------------


[INTRO continua] [esta parte se toca un 8va alto que el que esta escrito]

          E             G#m        F#msus    B 
 --2--4---7-7\--0-0--0--------2----0-------4-2--------
 --4--5---9-9\--0-0--0--4--44-4--4-2--22---5-4--------
 -----------------------4--44----4----22--------------
 -----------------------------------------------------
 -----------------------------------------------------
 -----------------------------------------------------

          E             G#m        F#msus    B         B7
 --2--4---7-7\--0-0--0--------2----0-------4-2--4-2--4-2-------
 --4--5---9-9\--0-0--0--4--44-4--4-2--22---5-4--5-4--5-4-------
 -----------------------4--44----4----22-----------------------
 --------------------------------------------------------------
 --------------------------------------------------------------
 --------------------------------------------------------------


[VERSO i ]
  
     E 
 --------7-----7---9------7-----7---9--------------
 ------9-----9---9------9-----9--------------------
 ----9-----9----------9-----9-----9----------------
 --------------------------------------------------
 --------------------------------------------------
 --------------------------------------------------
 Hoy vuelvo a sentir tus ojos sobre mi pasado

    G#m7
 -------7-----7---7------7-----7----7--------------
 -----9-----9----------9-----9---------------------
 ---8-----8-----8----8-----8------8----------------
 --------------------------------------------------
 --------------------------------------------------
 --------------------------------------------------
  Y es como una nube repentina pero eterna

  A9                                 F#msus      
 -----5-----5---5------5--------5--------------------
 ---5-----5----------5---5----7---7------------------
 -6-----6-----6----6--------6------------------------
 --------------------------------------------------
 --------------------------------------------------
 --------------------------------------------------
  Eres un infierno donde corre brisa fresca

    B
 -------2-----2---2--------------------------------------------14-16-17-16h17p16-14-16-----
 -----4-----4-----------------------------------------14-16-17-----------------------------
 ---4-----4-----4----------------------------13-14-16--------------------------------------
 -----------------------------------13-14-16-----------------------------------------------
 -----------------------------14-16--------------------------------------------------------
 ------------------------------------------------------------------------------------------
  Y esa tentación que dice que aun te amo............


[VERSO] continua el requinto

 E
 Yo nunca he podido controlar mis sentimientos
   
   G#m7
 Y hoy soy el licor que se escapó de una botella

    Asus2                           F#m
 Disfracé de canto uno mas de mis silencios,

  B
 -------------------------------7-------------
 -----7-----7---7-----7-----7---7-------------
 ---8-----8---------8-----8-----8-------------
 -9-----9-----9---9-----9-------9-------------
 -------------------------------9-------------
 ---------------------------------------------
  Para decirte...


[primer CORO]

                     E
 -----------------------------12--------------
 --------------------------12-----12----------
 -----------------------13-----------13-------
 --------------------14-----------------------
 ---------------------------------------------
 ---------------------------------------------
  Que se me ahoga la vida si tu
                     
                        F#m
 ----------12-----------------9-14--9---------
 -------12-----12----------10---------10------
 ----13-----------13----11--------------------
 -14------------------------------------------
 ---------------------------------------------
 ---------------------------------------------
  Tienes otro amor y no vas a volver
                       
                         A9
 --------9-14--9--------------9-12--9---------
 -----10---------10--------10---------10------
 --11--------------------9--------------------
 ---------------------------------------------
 ---------------------------------------------
 ---------------------------------------------
  Aun tengo tu nombre sembrado en mi piel
         
              F#m       B7           
 ------9-------9------------7-11--7--------7-11--7-------
 ---10------10------------7---------7----7---------7-----
 -9------11-------------8--------------8-----------------
 --------------------------------------------------------
 --------------------------------------------------------
 --------------------------------------------------------
  Entonces si puedes volver junto a mi.


[continua el requinto]

                  E
Y yo quisiera abrazarme de ti

                      F#m7
Y llegar al cielo con esta pasión

                        A
Yo pensé que habías olvidado el ayer

                F#m        B
 ------9-------9---------------7-11---11---7-------
 ---10------10---------------7------7----7---------
 -9------11----------------8-----------------------
 --------------------------------------------------
 --------------------------------------------------
 --------------------------------------------------
  Yo también pensaba, pero ya me ves


[segundo CORO] [el requinto se toca un 8va alto que el que esta escrito]

G#m A   B   E               G#m7         
 -4-5---7---------4-----------------------------------
 -4-5---7-------5----5----------4-5-4h5p4-------------
 -4-6---8-----4--------4------4-----------4---4-------
 -----------6---------------6---------------6---------
 -----------------------------------------------------
 -----------------------------------------------------
 Te quiero igual o mas que ayer
          
               A                 B7
 --------------------0-----------------------
 ------------------2----2--------------------
 ----------------2--------2------------------
 --------------2-----------------------------
 --------------------------------------------
 --------------------------------------------
 Yo también te quiero igual que ayer,
           
G#m A   B   E               G#m7
 Te quiero igual o mas que ayer
         
               A9              B
 --------------------0-------------7------7----7-----
 ------------------2----2----------7------7----7-----
 ----------------2--------2------8------8------------ 
 --------------2---------------9------9------9-------
 ----------------------------------------------------
 ----------------------------------------------------
 Yo también te quiero mas que ayer


[se toca el requinto del primer coro]

                  E
Y yo quisiera abrazarme de ti

                      F#m7
Y llegar al cielo con esta pasión

                        A
Yo pensé que habías olvidado el ayer

              F#m        B  
Yo también pensaba, pero ya me ves, ya me ves


[SOLO]

    E          D            C#m     B
 ------------7-----7------------------------------------
 -7/9-99999--9-77--9-77-9-7-5--7-5--4--5-4--------------
 -7/9-99999----77----77-9-7-6--7-6--4--4-4--------------
 -------------------------------------------------------
 -------------------------------------------------------
 -------------------------------------------------------

   E   [D]        C#m             Dmaj7
 -----------------9-7---------7---11--------------------
 --9-7-------7--------10-9-10--------12-10-9-10-12------
 ------9-8-9--------------------------------------------
 -------------------------------------------------------
 ----[rapido]---------[rapido]-------[rapido]-----------
 -----repite-----------repite---------repite------------

  E
 -12--14/16-16/17-19\17-17\16-16\14-14/16-17 16---------
 -12----------------------------------------------------
 -------------------------------------------------------
 -------------------------------------------------------
 -------------------------------------------------------
 -------------------------------------------------------


[se continua con el requinto del VERSO i]

E
Eres simplemente el lado bello de mi vida


G#m
Eres la esperanza que le queda a mi esperanza

A9                       F#m
Cuanto diera por hacerte mía, vida mía

  B
Y que esta tristeza se convierta en alegría


E
Es tan evidente que te sigo amando tanto

G#m
Que me falta poco para entregarme a tus labios

A
Que tiemblan mis manos

                       F#m
Cada vez que estas mas cerca

  B7
y que te extraño..


[con el requinto del primer coro]

                  E
Y que me ahoga la vida también

                       F#m7
Si descubro que amas a otra mujer

                       A9
Como crees que voy a besar otra piel

          F#m       B
Entonces abrázame y ven junto a mi


                  E
Yo nunca pude olvidarme de ti

                         F#m
¿Puedes perdonarme si un día te falté?

                    A
Estas perdonado por mi corazón

             F#m    B
Entonces acompáñame en mi canción


[con el requinto del segundo CORO] 


G#m A   B   E               G#m7         
 Te quiero igual o mas que ayer
          
               A                 B7
 Yo también te quiero igual que ayer,
           
G#m A   B   E               G#m7
 Te quiero igual o mas que ayer
         
               A9              B
 Yo también te quiero mas que ayer    [se repite]
Suggest correction
Give kudos to tab author, rate the tab!
1 2 3 4 5
comments
print report bad tab
guest
You may want to rate the tab now too:
select rating
Wanna post a correction for this tab? Suggest correction