Oops, an error
Loading. Please wait.

Sam Hall bass

13 views 3 this week
no commentswrite comment
1 2 3 4 5
3 more votes to show rating
add to favorites
×
Save as Personal and add changes to this tab that will be seen only by you. Learn more ›
×
You can save this tab as Personal to edit and correct it or add notes. All changes will be seen only by you. Learn more »
launch autoscroll
font size
0
reset
guitar tuner
edit
Autoscroll
slow
fast
+/-
esc
set tempo
stop
[Verse]
("Well my name it is Sam Hall, Sam Hall...")
G|----------------------------------|---------------------------------|
D|----------------------------------|-----------------5-5-5-5-5-5-5-5-|
A|-3-3-3-3-3-3-3-3--3-3-3-3-3-3-3-3-|-3-3-3-3-3-3-3-3-----------------|
E|----------------------------------|---------------------------------|

[Chorus]
("My name it is Sam Hall and I hate you one and all...")
G|----------------------------------|---------------------------------|
D|------------------3-3-3-3-3-3-3-3-|---------5-5-5-5-----------------|
A|-3-3-3-3-3-3-3-3------------------|-3-3-3-3---------3-3-3-3-3-3-3-3-|
E|----------------------------------|---------------------------------|

[Verse]
("I killed a man they said, so they said...")
G|----------------------------------|---------------------------------|
D|----------------------------------|-----------------5-5-5-5-5-5-5-5-|
A|-3-3-3-3-3-3-3-3--3-3-3-3-3-3-3-3-|-3-3-3-3-3-3-3-3-----------------|
E|----------------------------------|---------------------------------|

[Chorus]
("I killed a man they said and I smashed in his head...")
G|----------------------------------|---------------------------------|
D|------------------3-3-3-3-3-3-3-3-|---------5-5-5-5-----------------|
A|-3-3-3-3-3-3-3-3------------------|-3-3-3-3---------3-3-3-3-3-3-3-3-|
E|----------------------------------|---------------------------------|

[Verse]
("Well a swingin' I must go, I must go...")
G|----------------------------------|---------------------------------|
D|----------------------------------|-----------------5-5-5-5-5-5-5-5-|
A|-3-3-3-3-3-3-3-3--3-3-3-3-3-3-3-3-|-3-3-3-3-3-3-3-3-----------------|
E|----------------------------------|---------------------------------|

[Chorus]
("Swingin' I must go, all you motherfuckers down below...")
G|----------------------------------|---------------------------------|
D|------------------3-3-3-3-3-3-3-3-|---------5-5-5-5-----------------|
A|-3-3-3-3-3-3-3-3------------------|-3-3-3-3---------3-3-3-3-3-3-3-3-|
E|----------------------------------|---------------------------------|

[Solo]
G|----------------------------------|---------------------------------|
D|----------------------------------|-----------------5-5-5-5-5-5-5-5-|
A|-3-3-3-3-3-3-3-3--3-3-3-3-3-3-3-3-|-3-3-3-3-3-3-3-3-----------------|
E|----------------------------------|---------------------------------|

G|----------------------------------|---------------------------------|
D|------------------3-3-3-3-3-3-3-3-|---------------------------------|
A|-3-3-3-3-3-3-3-3------------------|-3-3-3-3---------3-3-3-3-3-3-3-3-|
E|----------------------------------|---------3-3-3-3-----------------|

[Verse]
("I saw Molly in the crowd, in the crowd...")
G|----------------------------------|---------------------------------|
D|----------------------------------|-----------------5-5-5-5-5-5-5-5-|
A|-3-3-3-3-3-3-3-3--3-3-3-3-3-3-3-3-|-3-3-3-3-3-3-3-3-----------------|
E|----------------------------------|---------------------------------|

[Chorus]
("I saw Molly in the crowd and I hollered right out loud...")
G|----------------------------------|---------------------------------|
D|------------------3-3-3-3-3-3-3-3-|---------5-5-5-5-----------------|
A|-3-3-3-3-3-3-3-3------------------|-3-3-3-3---------3-3-3-3-3-3-3-3-|
E|----------------------------------|---------------------------------|

[Verse]
("Well the Sherif he came too, he came too...")
G|----------------------------------|---------------------------------|
D|----------------------------------|-----------------5-5-5-5-5-5-5-5-|
A|-3-3-3-3-3-3-3-3--3-3-3-3-3-3-3-3-|-3-3-3-3-3-3-3-3-----------------|
E|----------------------------------|---------------------------------|

[Chorus]
("Well the Sherif he come too, he said 'Sam how are you?'...")
G|----------------------------------|---------------------------------|
D|------------------3-3-3-3-3-3-3-3-|---------5-5-5-5-----------------|
A|-3-3-3-3-3-3-3-3------------------|-3-3-3-3---------3-3-3-3-3-3-3-3-|
E|----------------------------------|---------------------------------|

[Verse]
("My name it is Samuel, Samuel...")
G|----------------------------------|---------------------------------|
D|----------------------------------|-----------------5-5-5-5-5-5-5-5-|
A|-3-3-3-3-3-3-3-3--3-3-3-3-3-3-3-3-|-3-3-3-3-3-3-3-3-----------------|
E|----------------------------------|---------------------------------|

[Chorus]
("My name it is Samuel and I'll see you all in hell...")
G|----------------------------------|---------------------------------|
D|------------------3-3-3-3-3-3-3-3-|---------5-5-5-5-----------------|
A|-3-3-3-3-3-3-3-3------------------|-3-3-3-3---------3-3-3-3-3-3-3-3-|
E|----------------------------------|---------------------------------|

[Outro]
("My name is Sam Hall and I hate you one and all, I hate you one and all, Damn your eyes")
G|----------------------------------|---------------------------------|
D|-----------------3-3-----3-3------|---------------------------------|
A|-3-3-----3-3----------------------|-3-3-------------3---------------|
E|----------------------------------|---------3-3---------------------|
Suggest correction
Creating personal tab
Creating personal tab
You can edit any tab online and save it as your Personal.

You can edit, replace or remove any tab part or add personal notes – all changes will be seen only by you.

Personal tabs can be accessed anytime from any device, even offline.
Learn more »
Give kudos to tab author, rate the tab!
1 2 3 4 5
comments
print report bad tab
guest
You may want to rate the tab now too:
select rating
Wanna post a correction for this tab? Suggest correction