Oops, an error
Loading. Please wait.

A Realization Of How Its Always Been tab

version 1
version 1

Whole song

Interactive

by Moneen
619 views 1 this week
1 commentread comment
1 2 3 4 5
1 last vote to show rating
add to favorites
×
Save as Personal and add changes to this tab that will be seen only by you. Learn more ›
×
You can save this tab as Personal to edit and correct it or add notes. All changes will be seen only by you. Learn more »
launch autoscroll
font size
0
reset
how to read this tab
guitar tuner
edit
Autoscroll
slow
fast
+/-
esc
set tempo
stop
Title: A Realization Of How It's Always Been
Band: Moneen



e|---12---|
b|-----12-|
g|--7-----|
d|-7------|
a|--------|
e|--------|
Play harmonics 8x


guitar 2:
comes in at 4th time
e|-------|
b|77-----|
g|-------|
d|-------|
a|-------|
e|-------|
play harmonic twice at beggining of each bar



e|------------------------0-0---0-0---0-0---0-0--|
b|-0-0---0-0---0-0---0-0-5-5-5-3-3-3-1-1-1-1-1-1-|
g|5-5-5-4-4-4-0-0-0-0-0-0------------------------|
d|-----------------------------------------------|
a|-----------------------------------------------|
e|-----------------------------------------------|
play 2x



1.                                             
e|-----------------------|                     
b|-----------------------|                     
g|12-14-16-12-12-12-11-7-|                     
d|x--x--x--x--x--x--x--x-|                     
a|10-12-14-10-9--10-9--5-|                     
e|-----------------------|                     
play 2x                                        
                                               
2.                                             
e|-----------------------------|               
b|-----------------------------|               
g|14-16-12-14-16-12-14-16-11-7-|               
d|x--x--x--x--x--x--x--x--x--x-|               
a|12-14-10-12-14-10-12-14-9--5-|               
e|-----------------------------|               
play 2x                                        

3.                                             
e|--------------------------------|            
b|--------------------------------|            
g|-------------------------7------|            
d|5-5-4-5-5-5-4-5-5-5-4-5-9-9-7-9-|            
a|--------------------------------|            
e|--------------------------------|            
pm-----------------------|                     
play 4x                                        

4.                                             
e|------------------------|                    
b|------------------------|                    
g|11/12-11/12-11/12-14-16-|                    
d|x--x--x--x--x--x--x--x--|                    
a|9-/10-9-/10-9-/10-12-14-|                    
e|------------------------|                    
                                               


play 1:2x
play 2:2x


play 3:11x                                     
on 5th time guitar 2:                          
e|---------|                                   
b|---------|                                   
g|--7------|                                   
d|-9-9-7-9-|                                   
a|---------|                                   
e|---------|                                   


play 1:2x                                      
play 2:2x                             



guitar 1:                                      
e|------------|                                
b|------------|                                
g|------------|                                
d|------------|                                
a|2-3---7-5-3-|                                
e|---3b-------|                                
                                               
                                               
guitar 2:                                      
e|------------------|                          
b|--------12-10-----|                          
g|-----12b------12--|                          
d|9-10--------------|                          
a|------------------|                          
e|------------------|                          


e|------0------|
b|---3---3-3---|
g|-0--0---0-0--|
d|0-0--0-----0-|
a|-------------|
e|-------------|

e|---12---|
b|-----12-|
g|--7-----|
d|-7------|
a|--------|
e|--------|

            
            
Suggest correction
Creating personal tab
Creating personal tab
You can edit any tab online and save it as your Personal.

You can edit, replace or remove any tab part or add personal notes – all changes will be seen only by you.

Personal tabs can be accessed anytime from any device, even offline.
Learn more »
Give kudos to tab author, rate the tab!
1 2 3 4 5
comments
print report bad tab
1 comment total.
0 reply
choke383 2,255 Nov 03, 2009 04:03 PM

the whole intro is off
harmonix
e|--------|
b|---12---|
g|--7--12-|
d|-7------|
a|--------|
e|--------|
2
e|------|
b|---7---|
g|--5-7----|
d|-7------|
a|--------|
e|--------|

e|------------------------------------------------------0------|
b|----0-0--------------------------0-0----0-0----0-0-----0---|
g|/5-5-5-----0-0----0-0----0-0-/9-9-9-/7-7-7--5-5-5--5-5--5---|
d|-------/7-7-7--5-5-5--5-5-5----|
a|------------------------|
e|--------------------------------|

guest
You may want to rate the tab now too:
select rating
Wanna post a correction for this tab? Suggest correction