Oops, an error
Loading. Please wait.

Casual Threats From Weekend Hardmen Tab

1,066 views 1 this week
3 commentsread comments
1 2 3 4 5
please rate
add to favorites
launch autoscroll
font size
0
reset
how to read this tab
guitar tuner
Tab Pro tools
  • play this tab
  • loop segment
  • change instrument
  • show fretboard
  • metronome
×
Best way to learn
"Casual Threats From Weekend Hardmen"
Autoscroll
slow
fast
+/-
esc
set tempo
stop
Contributor
Difficulty
Tuning
novice
B F# B E G# C#
Tabbed by: Nuntuckity
E-mail: jordandeanramsey@hotmail.co.uk

Mongel Horde Facebook Page: https://www.facebook.com/mongolhordemusic

Mongel Horde - Casuel Threats From Weekend Hardmen: http://www.youtube.com/watch?v=2tGk5zLwdwg

I'm not really good at tabbing anything but I've gone over each note and listened for it 
in the song. The notes are there it's just a matter of you getting the timing right. :)

Hope you enjoy. It's a fucking great song and they're also great live.

Tuning: B F# B E G# C#

INTRO

C#|------------------------------------------------------------------------------|
G#|------------------------------------------------------------------------------|
E|-------------------------------------------------------------------------------|
B|------10-10-10-8-8-------------------------------------------------------------|
F#|------------------------------------------------------------------------------|
B|-8-8-8-------------------------------------------------------------------------|  x4

VERSE x 4

B|--------------------------------------------------------------------------------|
F#|-------------------------------------------------------------------------------|
B|--------------------------------------------------------------------------------|
E|-----------------------------------------------11-11-11-9-9-------11-11-11-9-9--|
G#|----11-11-12-12-11-11-9-9-11-11-----9-9----------------------------------------|
C#|-9-9---------------------------12-12----9-9-9--------------9-9-9---------------|

Repeat the intro again 4 times for the little Verse/Chorus changeover!

Intro riff x 4


C#|-----------------------------------------------------------------------------|
G#|-----------------------------------------------------------------------------|
E|------------------------------------------------------------------------------|
B|------10-10-10-8-8------------------------------------------------------------|
F#|-----------------------------------------------------------------------------|
B|-8-8-8------------------------------------------------------------------------|

CHORUS x4

B|------------------------------------------------------------------------------|
F#|-----------------------------------------------------------------------------|
B|--11--------------------------------------------------------------------------|
E|--10--9---9-9--9-9---9--9-9--9-9---9-9-9--11----------------------------------|
G#|-9---9---9-9--9-9---9--9-9--9-9---9-9-9--------------------------------------|
C#|-----9---9-9--9-9---9--9-9--9-9---9-9-9----9-9-9-7s9-------------------------|

VERSE x 4

B|--------------------------------------------------------------------------------|
F#|-------------------------------------------------------------------------------|
B|--------------------------------------------------------------------------------|
E|-----------------------------------------------11-11-11-9-9-------11-11-11-9-9--|
G#|----11-11-12-12-11-11-9-9-11-11-----9-9----------------------------------------|
C#|-9-9---------------------------12-12----9-9-9--------------9-9-9---------------|

Repeat the intro section again to get onto the second chorus.

CHORUS x 4

B|------------------------------------------------------------------------------|
F#|-----------------------------------------------------------------------------|
B|--11--------------------------------------------------------------------------|
E|--10--9---9-9--9-9---9--9-9--9-9---9-9-9--11----------------------------------|
G#|-9---9---9-9--9-9---9--9-9--9-9---9-9-9--------------------------------------|
C#|-----9---9-9--9-9---9--9-9--9-9---9-9-9----9-9-9-7s9-------------------------|

Now for the bridge. Not 100% sure about the notes but it sounds alright enough. And also 
there is palm muting/ringing notes so listen for them in the song!

BRIDGE x 4


B|---------------------------------------------------------------------------------|
F#|--------------------------------------------------------------------------------|
B|---------------------------------------------------------------------------------|
E|---------------------------------------------------------------------------------|
G#|----------------------------------7-5-------------------------------------------|
C#|-----4--4-4-4-4-4-4-4-2h4-x-5-5-x------2----------------------------------------|


And then after the Bridge it does the chorus again for 4 bars.

CHORUS x4

B|------------------------------------------------------------------------------|
F#|-----------------------------------------------------------------------------|
B|--11--------------------------------------------------------------------------|
E|--10--9---9-9--9-9---9--9-9--9-9---9-9-9--11----------------------------------|
G#|-9---9---9-9--9-9---9--9-9--9-9---9-9-9--------------------------------------|
C#|-----9---9-9--9-9---9--9-9--9-9---9-9-9----9-9-9-7s9-------------------------|

And then the Verse riff should be played only twice and also if you have an octave 
pedal, use that. It sounds like he's using an octaver for the last 2 bars. :)

Verse x 2

B|--------------------------------------------------------------------------------|
F#|-------------------------------------------------------------------------------|
B|--------------------------------------------------------------------------------|
E|-----------------------------------------------11-11-11-9-9-------11-11-11-9-9--|
G#|----11-11-12-12-11-11-9-9-11-11-----9-9----------------------------------------|
C#|-9-9---------------------------12-12----9-9-9--------------9-9-9---------------|


************************************

| /   slide up
| \   slide down
| h   hammer-on
| p   pull-off
| ~   vibrato
| +   harmonic
| x   Mute note
| b   Bend
| pb  Pre-bend
| br  Bend release
| pbr Pre-bend release
| brb Bend release bend

************************************
comments
We did not receive enough feedback on this tab! Please rate:
print report bad tab
1 2 3 4 5
3 comments total.
0 reply
Nuntuckity wrote on February 19 2013, 12:40 pm


C#|------------------------------------------------------------------------------|
G#|------------------------------------------------------------------------------|
E|-------------------------------------------------------------------------------|
B|------11-11-11-9-9-------------------------------------------------------------|
F#|------------------------------------------------------------------------------|
B|-9-9-9-------------------------------------------------------------------------|


C#|-----------------------------------------------------------------------------|
G#|-----------------------------------------------------------------------------|
E|------------------------------------------------------------------------------|
B|------11-11-11-9-9------------------------------------------------------------|
F#|-----------------------------------------------------------------------------|
B|-9-9-9------------------------------------------------------------------------|

0 reply
Nuntuckity wrote on February 19 2013, 12:42 pm

Just to clarify. I those tabs above are for the "intro" sections. I made a mistake tabbing them originally and I can't edit them so I hope I haven't cause any bother whilst you learn!

- Jordan

-1 reply
Dr Sin wrote on June 18 2014, 09:01 am

Lack of accuracy.

I want to post or [tab]
guest
You may want to rate the tab now too:
select rating
Please do not post tabs as comments. Select "correction" instead!