Oops, an error
Loading. Please wait.

Maka Afora Chords

767 views 1 this week
no commentswrite comment
1 2 3 4 5
1 last vote to show rating
add to favorites
launch autoscroll
font size
0
reset
transpose
0
reset
simplify chords
display chords
guitar tuner
Autoscroll
slow
fast
+/-
esc
set tempo
stop
Help us to improve Ultimate-Guitar.com Take our survey!
×
Author
Difficulty
novice
פתיחה:

גיטרה ראשונה:
e||--------0---------------0---------------0-----------------5-------||
B||----3-----3--------3------3---3-----0------0----------3-----3---3-||
G||------2-----2----2---2------2---------2------2------4---4-----4---||
D||-0------------2------------------4-------------4s5----------------||
A||------------------------------------------------------------------||
E||------------------------------------------------------------------||

e||-------0---------------0----------------0-------3-||
B||---3-----3--------3------3---3------0------0----3-||
G||-----2-----2----2---2------2------2---2------2--4-||
D||-0-----------2------------------4---------------5-||
A||--------------------------------------------------||
E||--------------------------------------------------||

גיטרה שניה: x2

e||--2--2--2-3--2--0---------------------------0----------------------||
B||--------------------0------0--2--0-2-----2-----2--3----------------||
G||-------------------------------------------------------------------||
D||-------------------------------------------------------------------||
A||-------------------------------------------------------------------||
E||-------------------------------------------------------------------||
A   G           D Bm              
היא אמרה לי תראה   החיים די קלים
  G                D            Bm          
נשכור לנו חדר בדרום תל אביב ונחיה כמו גדולים
A  G        D Bm   A
ונחיה    מדקה לדקה
A  G                D             Bm        
נמצא עבודה זמנית לא רצינית וגם נחתום בלשכה
A  G               D Bm          
אולי גם תמצא   איזה נושא לכתיבה
A  G           D        Bm         
לא משהו עמוק משהו מתוק סיפור אהבה
A   G             D    Bm           
עם המון מטאפורות   עם המון דימויים
  G            D  Bm              
הגיבור יהיה שיכור   כמו שאתה בחיים
  D           A       
שאתה בחיים  שאתה בחיים
פזמון:
    Em         A    
יש כאב יפה שעובר מהר
Bm              G   
כשאני רוצה לא להיזכר
D D4 D        G       Em        A     
איך אני עמדתי שם  איך אני אמרתי לה
Em       A
ככה את יפה
D D4 D         G   
זה מה שאת צריכה
Em         A   
זה מה שאני רוצה
          G 
וככה זה יהיה
מעבר:
Bm A G F#m x2
F#m  G                D Bm      
זה קרה   בסתיו של השנה שעברה
F#m G                   D           Bm              
הוא יורד כמו מכה אפורה על העיר אני זוכר שהיא אמרה
F#m  G             D Bm      
אני זוכר   איך הכל התפורר
  A             G    D          Bm          
אולי את זוכרת מה את אומרת  מה את אומרת עכשיו
F#m  G               D Bm          
אולי גם אמצא   איזה נושא לכתיבה
F#m  G           D        Bm         
לא משהו חשוב משהו עצוב סיפור אהבה
F#m   G          D    Bm       
בלי מטאפורות   ובלי דימויים
  G            D Bm              
הגיבור יהיה שיכור  כמו שאני בחיים
  D          A       
שאני בחיים שאני בחיים
פזמון (ובסיום האקורד Bm)
Em   Bm/C#
ככה את יפה
 D         G   
זה מה שאת צריכה
Em         A   
זה מה שאני רוצה
          G 
וככה זה יהיה
סיום כמו הפתיחה
Suggest correction
Give kudos to tab author, rate the tab!
1 2 3 4 5
comments
print report bad tab
guest
You may want to rate the tab now too:
select rating
Wanna post a correction for this tab? Suggest correction