Oops, an error
Loading. Please wait.

Jack Bass Tab

798 views 1 this week
no commentswrite comment
1 2 3 4 5
please rate
add to favorites
launch autoscroll
font size
0
reset
guitar tuner
Autoscroll
slow
fast
+/-
esc
set tempo
stop
Help us to improve Ultimate-Guitar.com Take our survey!
×
Author
Difficulty
advanced
--------------------------------------------------------------------------
			     JACK - Monkey3
--------------------------------------------------------------------------

Album: 39 Laps

Monkey3, stoner/psychedelic rock from Lausanne, Switzerland
Website: www.monkeythree.com and www.myspace.com/monkeythreecom

Tabbed by: miauwmjam
E-mail: miauwmjam@gmail.com

Tuning: Standard EADG
10's, 11's and 12's are tens, elevens and twelves


[0.00-1.12]
G|---------------|---------------|---------------|---------------|
D|--56-64-77-656-|--56-64-77-7-9-|--56-64-77-656-|--56-64--------|
A|-7-------------|-7----------9--|-7-------------|-7------77-697-|
E|---------------|---------------|---------------|---------------| 5x

[1.13-1.41]       11th x
G|------|         G|------|
D|------|         D|------|
A|------|         A|-7-57-|
E|-9-79-| 16x     E|------|

[1.42-2.23]
G|---------------|---------------|---------------|---------------|
D|--56-64-77-656-|--56-64-77-7-9-|--56-64-77-656-|--56-64--------|
A|-7-------------|-7----------9--|-7-------------|-7------77-697-|
E|---------------|---------------|---------------|---------------| 3x

[2.24-2.50]
G|---------------|----------------|
D|---------------|----------------|
A|----7------6---|----9---9-10-11-|
E|-99------------|-99-------------| 4x

[2.51-3.30]
G|-------------|--------------|
D|-------------|--------------|
A|-------------|--------------|
E|-99-8/9---11-|-99-9/7---474-| 6x

[3.31-3.42]
G|-------------------------|----------------------------|
D|-------------------------|----------------------------|
A|-------------------------|-----------9-11-11--9-11-11-|
E|-99-8/9-9--9/11-11-11-11-|-99-8/9-9-------------------| 2x

[3.43-3.56]
G|-------------------------|--------------------------------|
D|-------------------------|--------------------------------|
A|-------------------------|--------------------------------|
E|-99-8/9-9--9/11-11-11-11-|-11/12-12-12-12--12/14-14-14-14-|

continue
G|-------------|-------------|-------------|-------------|
D|-------------|-------------|-------------|-------------|
A|-------------|-------------|-------------|-------------|
E|-16-16-16-16-|-15-16-16-16-|-16-16-16-16-|-15-16-16-16-|


[3.57-4.02]
G|------------|------------|
D|------------|-14-13-11---|
A|-14---------|------------|
E|------------|------------|

[4.03-4.15]
G|-------------------------|---------------------------|
D|-------------------------|---------------------------|
A|-------------------------|----------9-11-11--9-11-11-|
E|-8-9-9-9--11-11-11-11-11-|-8-9-9-9-------------------| 2x

[4.16-4.28]
G|-------------|-----------------------|------------------|
D|-------------|-----------------------|------------------|
A|-------------|-----------------------|----9-11-14-11----|
E|-9-----99-11-|-9------12-12-12-12-12-|-11------------11-|

[4.29-4.41]
G|-------------|------------|-------------|------------------|
D|-------------|--------/11-|-------------|------------------|
A|-------------|------------|-------------|----9-11-14-11----|
E|-9-----99-11-|-9----------|-9-----99-11-|-11------------11-|

[4.42-4.54]
G|-------------|------------|----------------------------|------------|
D|-------------|------------|----------------------------|------------|
A|-------------|-11-9-12-11-|-14-12--12-11--11-----------|------------|
E|-12-11-14-12-|------------|------------------14--14-12-|-11-9--11-9-|

[4.58] + [5.01]
G|---------|
D|---------|
A|---------|
E|-2/4/7/9-|

[5.02-5.53]               every 4th x
G|--------------|         G|---------------|
D|---11------11-|         D|---11-------11-|
A|--------------|         A|---------------|
E|-9-----9-9----| 16x     E|-9-----9-99----|

[5.53-6.08]
G|----------------|
D|----------------|
A|-4--6--9--7--11-|
E|----------------|

[6.09-6.34]               4th x
G|--------------|         G|----------------------|
D|---11------11-|         D|---11---------11------|
A|--------------|         A|---------9-11----11-9-|
E|-9-----9-9----| 8x      E|-9-----9--------------| 

[6.47]
G|-----------|
D|------11---|
A|-9-11------|
E|-----------|

[7.05-7.17]
G|-------------------------|---------------------------|
D|-------------------------|---------------------------|
A|-------------------------|----------9-11-11--9-11-11-|
E|-8-9-9-9--11-11-11-11-11-|-8-9-9-9-------------------| 2x

[7.18-7.29]
G|-------------------------|--------------------------------|
D|-------------------------|--------------------------------|
A|-------------------------|--------------------------------|
E|-99-8/9-9--9/11-11-11-11-|-11/12-12-12-12--12/14-14-14-14-|

continue
G|-------------|-------------|-------------|-------------|
D|-------------|-------------|-------------|-------------|
A|-------------|-------------|-------------|-------------|
E|-16-16-16-16-|-15-16-16-16-|-16-16-16-16-|-15-16-16-16-|

[7.30-7.36]
G|------------|-21-20-18---|
D|------------|------------|
A|-14---------|------------|
E|------------|------------|

[7.37-7.48]
G|-------------------------|---------------------------|
D|-------------------------|---------------------------|
A|-------------------------|----------9-11-11--9-11-11-|
E|-8-9-9-9--11-11-11-11-11-|-8-9-9-9-------------------| 2x

[7.49-8.01]
G|-------------------------|--------------------------------|
D|-------------------------|--------------------------------|
A|-------------------------|--------------------------------|
E|-99-8/9-9--9/11-11-11-11-|-11/12-12-12-12--12/14-14-14-14-|

continue
G|-------------|-------------|-------------|-------------|
D|-------------|-------------|-------------|-------------|
A|-------------|-------------|-------------|-------------|
E|-16-16-16-16-|-15-16-16-16-|-16-16-16-16-|-15-16-16-16-|

[8.02-8.07]
G|------------|-21-20-18---|
D|------------|------------|
A|-14---------|------------|
E|------------|------------|

[8.08-8.20]
G|-------------------------|---------------------------|
D|-------------------------|---------------------------|
A|-------------------------|----------9-11-11--9-11-11-|
E|-8-9-9-9--11-11-11-11-11-|-8-9-9-9-------------------| 2x

[8.21-8.36]
G|----------------|
D|----------------|
A|-4--6--9--7--11-|
E|----------------|

[8.56-9.04]
G|----------|
D|----------|
A|----------|
E|-99999999-| fade out

| /  slide up
| \  slide down
| h  hammer-on
| p  pull-off
| ~  vibrato
| +  harmonic
| x  Mute note
========================================================================
Suggest correction
Give kudos to tab author, rate the tab!
1 2 3 4 5
comments
print report bad tab
guest
You may want to rate the tab now too:
select rating
Wanna post a correction for this tab? Suggest correction