Oops, an error
Loading. Please wait.

Svaatanya Tab

313 views 1 this week
1 commentread comment
1 2 3 4 5
3 more votes to show rating
add to favorites
launch autoscroll
font size
0
reset
how to read this tab
guitar tuner
Autoscroll
slow
fast
+/-
esc
set tempo
stop
Help us to improve Ultimate-Guitar.com Take our survey!
×
Track 1
      E    E  E   Q    E   Q        Q    E   Q    E   E  E   
E||-----------------------------|---------------------------|
B||-----------------------------|---------------------------|
G||-----------------------------|---------------------------|
D||--15p--14-----10-------10----|--10-------10-------10-----|
A||-----------0--------0--------|--------0--------0------0--|
E||-----------------------------|---------------------------|


   E    E  E  Q    E  E  E      Q.     Q.     Q       Q    Q    Q    Q     
----------------------------|----------------------|----------------------|
----------------------------|----------------------|----------------------|
----------------------------|--12------9-----------|----------------------|
--15p--14-----9-------9-----|-----------------9----|--7----7----7----7----|
-----------0-------0-----0--|----------------------|----------------------|
----------------------------|----------------------|----------------------|


  Q    Q    Q    Q       Q    Q    Q    Q       Q    Q    Q    Q     
----------------------|----------------------|----------------------|
----------------------|----------------------|----------------------|
----------------------|----------------------|----------------------|
--7----7----7----7----|--5----5----5----5----|--3----3----3----3----|
----------------------|----------------------|----------------------|
----------------------|----------------------|----------------------|


  Q    Q    Q    Q       Q    Q    Q    Q       Q    Q    Q    Q     
----------------------|----------------------|----------------------|
----------------------|----------------------|----------------------|
----------------------|----------------------|----------------------|
--7----7----7----7----|--7----7----7----7----|--5----5----5----5----|
----------------------|----------------------|----------------------|
----------------------|----------------------|----------------------|


  Q    Q    Q    Q       E  E  E  E  E  E  E  E     E  E  E  E  E  E  E  E   
----------------------|--------------------------|--------------------------|
----------------------|--------------------------|--------------------------|
----------------------|--------------------------|--------------------------|
--3----3----3----3----|--7-----7-----7-----7-----|--7-----7-----7-----7-----|
----------------------|-----0-----0-----0-----0--|-----0-----0-----0-----0--|
----------------------|--------------------------|--------------------------|


  E  E  E  E  E  E  E  E     E  E  E  E  E  E  E  E   
--------------------------|--------------------------|
--------------------------|--------------------------|
--------------------------|--------------------------|
--5-----5-----5-----5-----|--3-----3-----3-----3-----|
-----0-----0-----0-----0--|-----0-----0-----0-----0--|
--------------------------|--------------------------|


   Q     E   E  E  E    E   E      H        H         
-------------------------------|---------------------|
-------------------------------|---------------------|
-------------------------------|---------------------|
--12----10--10--9--9h--10--10--|---------------------|
-------------------------------|--12--------0--------|
-------------------------------|---------------------|


   E    E  E  H        E     W                   E  E    E   H        E   
--------------------------|-------------------|--------------------------|
--------------------------|-------------------|--------------------------|
--------------------------|-------------------|--------------------------|
--15p--14-----7--------L--|--L----------------|-----7s--10--10--------L--|
-----------0--------------|-------------------|--0-----------------------|
--------------------------|-------------------|--------------------------|


  W                       Q     E   E  E  E    E   E      H        H         
-------------------|----------------------------------|---------------------|
-------------------|----------------------------------|---------------------|
-------------------|----------------------------------|---------------------|
--L----------------|--10g12----10--10--9--9h--10--10--|---------------------|
-------------------|----------------------------------|--12--------0--------|
-------------------|----------------------------------|---------------------|


    E   E  E  H        E     W                   E  E    E   H        E   
|-------------------------|-------------------|--------------------------|
|-------------------------|-------------------|--------------------------|
|*--9p--7-----------------|-------------------|--------------------------|
|*------------7--------L--|--L----------------|-----7s--10--10--------L--|
|----------0--------------|-------------------|--0-----------------------|
|-------------------------|-------------------|--------------------------|


  W                    Q     E   E  E  E    E   E      H        H         3x
-------------------|-------------------------------|----------------------||
-------------------|-------------------------------|----------------------||
-------------------|-------------------------------|---------------------*||
--L----------------|--12----10--10--9--9h--10--10--|---------------------*||
-------------------|-------------------------------|--12--------0---------||
-------------------|-------------------------------|----------------------||




Duration Legend
---------------
W - whole
H - half
Q - quarter
E - 8th
S - 16th
T - 32nd
X - 64th
. - note dotted
|-n-|  - n-tuplets


Tablature Legend
----------------
L - tied note
x - dead note
g - grace note
(n) - ghost note
> - accentuded note
NH - natural harmonic
AH - artificial harmonic
TH - tapped harmonic
SH - semi harmonic
PH - pitch harmonic
h - hammer on
p - pull off
b - bend
br - bendRelease
pb - preBend
pbr - preBendRelease
brb - bendReleaseBend
\n/ - tremolo bar dip
\n - tremolo bar dive
-/n - tremolo bar Release up
/n\ - tremolo bar inverted dip
/n - tremolo bar return
-\n - tremolo bar Release down
S - shift slide
s - legato slide
/ -  slide into from below or out of upwards
\ -  slide into from above or out of downwards
~ - vibrato
W - wide vibrato
tr - trill
TP - tremolo picking
T - tapping
S - slap
P - pop
< - fade in
^ - brush up
v - brush down
Suggest correction
Give kudos to tab author, rate the tab!
1 2 3 4 5
comments
print report bad tab
1 comment total.
0 reply
scrumple 10 Apr 14, 2016 10:24 AM

Great tab, unfortunately this isn't by Monkey3 but by My Sleeping Karma.

guest
You may want to rate the tab now too:
select rating
Wanna post a correction for this tab? Suggest correction