Oops, an error
Loading. Please wait.

Guitar Hero tab

version 4
version 4

Whole song

Interactive

417 views 1 this week
no commentswrite comment
1 2 3 4 5
1 last vote to show rating
add to favorites
×
Save as Personal and add changes to this tab that will be seen only by you. Learn more ›
×
You can save this tab as Personal to edit and correct it or add notes. All changes will be seen only by you. Learn more »
launch autoscroll
font size
0
reset
how to read this tab
guitar tuner
edit
Autoscroll
slow
fast
+/-
esc
set tempo
stop
Author
Difficulty
This is 100% correct. All the others are wrong. The others say they are 100% but they 
tone deaf and dont know what they are talking about. It goes a little somethin like this.

^=a bend

e|--------------------------------------------------------------|
b|--------------------------------------------------------------|
g|--------------------------------------------------------------|x3
d|--------------------------------------------------------------|
a|-9-9-9-9-9-9-7-5-5-7-9----------------------------------------|
e|-9-9-9-9-9-9-7-5-5-7-9----------------------------------------|


E|--------------------------------------------------------------|
B|--------------------------------------------------------------|
G|-7-----9------------------------------------------------------|
D|-7-x16-9-x16--------------------------------------------------|
A|-5-----7------------------------------------------------------|
E|--------------------------------------------------------------|


e|--------------------------------------------------------------|
b|--------------------------------------------------------------|
g|--------------------------------------------------------------|play a few
d|--------------------------------------------------------------| times
a|-9-9-9-9-9-9-7-5-5-7-9----------------------------------------|
e|-9-9-9-9-9-9-7-5-5-7-9----------------------------------------|


E|--------------------------------------------------------------|
B|--------------------------------------------------------------|
G|--------------------------------------------------------------|
D|-7---3---10---------------------------------------------------|
A|-7x6-3x6-10x6-------------------------------------------------|
E|-5---1----8---5-7-5-7-7^-5------------------------------------|


E|--------------------------------------------------------------|
B|--------------------------------------------------------------|
G|--------------------------------------------------------------|
D|-7---3---10---------------------------------------------------|
A|-7x6-3x6-10x6--------------9----------------------------------|
E|-5---1----8---5-7-5-7-7^-5-9----------------------------------|


E|-----------------------------------------------------------|
B|-----------------------------------------------------------|
G|-----------------------------------------------------------|
D|-----------------------------------------------------------|
A|-----12-12-10-10--------------------10-10-12-12------------|
E|-0-0-------------12-12-10-10-12-12-------------------------|

E|-----------------------------------------------------------|
B|-----------------------------------------------------------|
G|-----------------------------------------------------------|
D|-----------------------------------------------------------|
A|-----12-12-10-10-------------------------------------------|
E|-0-0-------------12-12-10-10-12-12-10-10-12-12-------------|


Then play last 2 again
Then play the first part
Then theres a solo that I dont know I dont think anyone does though
Then play


E|-----------------------------------------------------------|
B|-----------------------------------------------------------|
G|-----------------------------------------------------------|
D|-9-9-7-9--7-9-7-10--10---7--7---4-4------------------------|play a couple
A|-9-9-7-9--7-9-7-10--10x4-7--7x4-4-4------------------------|of times
E|-7-7-5-7--5-7-5--8---8---5--5---2-2------------------------|

E|-----------------------------------------------------------|
B|-----------------------------------------------------------|
G|-----------------------------------------------------------|
D|-9-9-7-9--7-9-7-10--10---12--12----------------------------|play a couple
A|-9-9-7-9--7-9-7-10--10x4-12--12x5--------------------------|times
E|-7-7-5-7--5-7-5--8---8---10--10----------------------------|

After this the rest of the song is a solo and I dont know but one bar of it and its 
in the middle of all the rest so I wont add it. Good luck!
Suggest correction
Creating personal tab
Creating personal tab
You can edit any tab online and save it as your Personal.

You can edit, replace or remove any tab part or add personal notes – all changes will be seen only by you.

Personal tabs can be accessed anytime from any device, even offline.
Learn more »
Give kudos to tab author, rate the tab!
1 2 3 4 5
comments
print report bad tab
guest
You may want to rate the tab now too:
select rating
Wanna post a correction for this tab? Suggest correction