Oops, an error
Loading. Please wait.

Bloodwork Bass Tab

26 views 1 this week
no commentswrite comment
1 2 3 4 5
please rate
add to favorites
launch autoscroll
font size
0
reset
guitar tuner
Autoscroll
slow
fast
+/-
esc
set tempo
stop
Help us to improve Ultimate-Guitar.com Take our survey!
×
Band: Monkeysoop
Song: Bloodwork(bass)
CD: Experimetal

Riff 1
g------------------------------------------------------------------|
d------------------------------------------------------------------|
a------------------------------------------------------------------|
e-3-2---2-1---0---3-2---2-1---0-----1-3------1-3------1-3-----5-3--|

Riff 2
g-------------------------------------------------------------------|
d-------------------------------------------------------------------|x3
a-------------------------------------------------------------------|
e-3p0-3p0-3p0-1-3-3p0-3p0-3p0-1-3-3p0-3p0-3p0-1-3-3p0-3p0-3p0-3-5---|

riff 3
g------------------------------------------------------------------|
d------------------------------------------------------------------|
a---------------------------x2-------------------------------------|
e-3-2-0-2-1-0-3-2-0-0-1-2------------------------------------------|

Riff 4
g--------------------------------------------------------------------|
d--------------------------------------------------------------------|
a--------------------------------------------------------------------|
e-3-2-0-2-1-0-3-2-0-0-1-2-3-2-0-2-1-0-3-2-0-0-1-2-3-2-0-2-1-0-3-2-0--|

g------------------------------------------------------------------|
d------------------------------------------------------------------|
a------------------------------------------------------------------|
e-0-1-23-2-0-2-1-0-3-2-0-0-1-2-------------------------------------|

Riff 2 x2
Riff 3 x2
Riff 4

Riff 5
g------------------------------------------------------------------|
d------------------------------------------------------------------|
a---------------------------x4-------------------------------------|
e-3-2-0-3-2-0-3-2-0-3-2-0------------------------------------------|

Riff 6
g------------------------------------------------------------------|
d------------------------------------------------------------------|
a-3-2-0-3-2-0-3-2-0-3-2-0---------------------------x4-------------|
e-------------------------3-2-0-3-2-0-3-2-0-3-2-0------------------|

Riff 6
g-------------------------------------------------------------------|
d-------------------------------------------------------------------|
a-------------------------------------------------------------------|
e-3-3-3-3-3-3-3-3-3-3-3-3-3-3-3-3-3-3-3-3-3-3-3-5-5-5-5-5-5-5-5-3-3-|

g----------------------------------------------------------------|
d----------------------------------------------------------------|
a-------------------------------5-----5-----5----5---------------|
e-3-3-3-3-3-3-3-3-3-3---------7-----7-----7-----7----------------|

Riff 6
g----------------------------------------------------------------|
d----------------------------------------------------------------|
a--------------------------------------------x4------------------|
e-3-2-0-0-3-2-0-0-3-2-0-0-3-2-333-222-000--------3-2-0-----------|
Suggest correction new What's this?
You can suggest a correction to this tab. Community and Mods will review your correction and vote to approve or reject it.
comments
We did not receive enough feedback on this tab! Please rate:
print report bad tab
1 2 3 4 5
guest
You may want to rate the tab now too:
select rating
Please do not post tabs as comments. Select "correction" instead!