Oops, an error
Loading. Please wait.

Bloodwork Tab

version 1
version 1

Solo

Whole song

33 views 1 this week
no commentswrite comment
1 2 3 4 5
3 more votes to show rating
add to favorites
launch autoscroll
font size
0
reset
how to read this tab
guitar tuner
Autoscroll
slow
fast
+/-
esc
set tempo
stop
Help us to improve Ultimate-Guitar.com Take our survey!
×
Band-Monkeysoop
Song-Bloodwork(solo)
CD-Experimetal

1st solo
e--12t15t12t15t12t15t12t15t12t15t12t15-------|
b----------(bend-w/bar)----------------------|
g--------------------------------------------|
d--------------------------------------------|
a--------------------------------------------|
e--------------------------------------------|

e--------------------------------------------|
b--------------------------------------------|
g-----14h15p14-------15h18p15----------------|
d---15------------17-------------x2----------|
a-17------------15---------------------------|
e--------------------------------------------|

e--------------------------------------------|
b-----16h17p16--------17h20p17---------------|
g---17-------------19------------x2----------|
d-19------------17---------------------------|
a--------------------------------------------|
e--------------------------------------------|

e---------------12b-b-b-b-b-r-r-r-r-r-r-r-r--|
b------------12------------------------------|
g---------13---------------------------------|
d------14------------------------------------|
a---14---------------------------------------|
e-12-----------------------------------------|

e--------------------------------------------|
b--------------------------------------------|
g--------------------------------------------|
d-------------------14-16-17---x2------------|
a----------14-15-17--------------------------|
e-14-15-17-----------------------------------|

e-17p15----------------15h17p15-------------|
b-------------------------------------------|
g-------18p15-----15h18----------18p-15-----|
d--------------17-----------------------17--|
a-------------------------------------------|
e-------------------------------------------|

e-19p17---------------17h19p17--------------|
b-------------------------------------------|
g-------20p17----17h20---------17h20--------|
d-------------19---------------------19-----|
a-------------------------------------------|
e-------------------------------------------|
Pick slide

2nd solo
Pick slide

e-----------15-19v------------15-19v15-17v-|
b---------15----------------15-------------|
g-------16----------------16---------------|
d-----17----------------17-----------------|
a---17----------------17-------------------|
e-15----------------15---------------------|

e-7s12-------------7s12---------------------|
b-----14---------------14-------------------|
g-------14----------------14----------------|
d---------14----------------14--------------|
a-----------12s7---------------12s9s19------|
e-------------------------------------------|

e-------------------------------------------|
b-----3s2--------5s4------7s6-------10s9----|
g----4---------6---------8--------11--------|
d-3s5------5s7--------7s9-----9s12----------|
a-------------------------------------------|
e-------------------------------------------|

e--------------14h17p14----------------14-17-|
b------------16--------16------------16------|
g----------16-------------16-------16--------|
d--------16------------------16--16----------|
a--6h9-14----------------------14------------|
e-9------------------------------------------|
Suggest correction
Give kudos to tab author, rate the tab!
1 2 3 4 5
comments
print report bad tab
guest
You may want to rate the tab now too:
select rating
Wanna post a correction for this tab? Suggest correction