Oops, an error
Loading. Please wait.

The Balance Factor Tab

42 views 1 this week
no commentswrite comment
1 2 3 4 5
please rate
add to favorites
launch autoscroll
font size
0
reset
how to read this tab
guitar tuner
Autoscroll
slow
fast
+/-
esc
set tempo
stop
Help us to improve Ultimate-Guitar.com Take our survey!
×
Author
Difficulty
intermediate
Band - Monkeysoop
Song - The Balance Factor
CD - Experimetal II

part 1 - is in 15/16 time signature

guitar 1
e-----------------------------------------------------------------|
b-----------------------------------------------------------------|
g---------------------------------------------------------------7-|
d-7---6------6-----7---6------6------7---6-----6----7-----6-------|
a-7---6------------7---6-------------7---6----------7---------6---|
e---0---0---5--5-----0----0--5--5------0--0---5--5----0--5--5-----|

guitar 2
e-------------17---------|
b------------------------|
g-14--13--14-------------|
d------------------------|
a------------------------|
e------------------------|

part 2
guitar 1&2
e-----------------|
b-----------------|
g-----------------| x4
d-----------------|
a-7--6--5--4--3---|
e-5--4--3--2--1---|

part 3
guitar 1
e------------------------------------|
b------------------------------------|
g------------------------------------| x 4
d------------------------------2222--|
a----------2222------------2222------|
e-555544444----222255554444----------|
Suggest correction
Give kudos to tab author, rate the tab!
1 2 3 4 5
comments
print report bad tab
guest
You may want to rate the tab now too:
select rating
Please do not post tabs as comments. Select "correction" instead!