Oops, an error
Loading. Please wait.

Wormhole Bass Tab

79 views 1 this week
no commentswrite comment
1 2 3 4 5
please rate
add to favorites
launch autoscroll
font size
0
reset
guitar tuner
Tab Pro tools
  • play this tab
  • loop segment
  • change instrument
  • show fretboard
  • metronome
×
Best way to learn
"Wormhole"
Autoscroll
slow
fast
+/-
esc
set tempo
stop
Difficulty
intermediate
Wormhole''

g------------------------------------------------------------------|
d-333--------------333------------333--------------333-------------|
a-222--------------222------------222--------------222-------------|
e------------------------------------------------------------------|



g--------------------------------------------|
d------3333-------3333------3333-------3333--|
a------2222-------2222------2222-------2222--|
e-111--------111--------111--------111-------|


g--3333-----3333-----3333-----3333------------|
d--2222-----2222-----2222-----2222------------|
a--3333-----3333-----3333-----3333------------|
e---------------------------------------------|

The next part when the guitar is doing the scale runs is in the key of E



g----------------------------------|
d---------------------------2------|
a--0h1--oh1-3----0h1--0h1-3---4----|
e-------------2--------------------|


g----------------------------------|
d----------------------------------|
a-1-1--------1-1-------------------|
e------1-1--------1-1--------------|

g----------------------------------|
d---------------------------2------|
a--0h1--oh1-3----0h1--0h1-3---4----|
e-------------2--------------------|

g----------------------------------|
d----------------------------------|
a--1-1-----1-1---------------------|
e-----1-1------1-1-----------------|

g----------------------------------|
d--1-1-------1-1-------------------|
a-------1-1-------1-1--------------|
e----------------------------------|




g----------------------------------------------------|
d-----------0h2p0------------------------------------|
a-------------------2p0------------------------------|
e---1--0------------------1--0---3-------------------|


The slow part is.. D-E

Then heavy part..

Back and forth from slow to heavy

g----------------------------------|
d----------------------------------|
a-4-3-2h3p2------------------------|
e-----------0----------------------|


Then..
g------------------------------------------------------------------|
d-333--------------333------------333--------------333-------------|
a-222--------------222------------222--------------222-------------|
e------------------------------------------------------------------|



g--------------------------------------------|
d------3333-------3333------3333-------3333--|
a------2222-------2222------2222-------2222--|
e-111--------111--------111--------111-------|


g--3333-----3333-----3333-----3333------------|
d--2222-----2222-----2222-----2222------------|
a--3333-----3333-----3333-----3333------------|
e---------------------------------------------|
comments
We did not receive enough feedback on this tab! Please rate:
print report bad tab
1 2 3 4 5
I want to post or [tab]
guest
You may want to rate the tab now too:
select rating
Please do not post tabs as comments. Select "correction" instead!