Oops, an error
Loading. Please wait.

Ode Tab

by MONO
28 views 1 this week
no commentswrite comment
1 2 3 4 5
3 more votes to show rating
add to favorites
launch autoscroll
font size
0
reset
how to read this tab
guitar tuner
Autoscroll
slow
fast
+/-
esc
set tempo
stop
Help us to improve Ultimate-Guitar.com Take our survey!
×
Author
Difficulty
intermediate
MONO- 'Ode'
From 'Walking Cloud and Deep Red Sky, Flag Fluttered and the Sun Shined'
Tabbed by ear
Enjoy :(


                                      Intro/Main riff
Guitar 1: Taka
e|----------7-------------------------------7-------------------
B|-8---8-10------7---7-8-10----7---7-8-10-------7---7---7---7---
G|---9-------------9-------------7--------7---7---7---7---7---7-
D|-------------------------------------------------------------- (x6)
A|--------------------------------------------------------------
E|--------------------------------------------------------------

                                         ChorUs/Orchestral part


Guitar 1: 
e|----------7-------------------------------7-------------------
B|-8---8-10------7---7-8-10----7---7-8-10-------8---8---7---7---
G|---9-------------9-------------7--------7---7---7---7---7---7-
D|-------------------------------------------------------------- (x4)
A|--------------------------------------------------------------
E|--------------------------------------------------------------


Quiet Part After Orchestral part

Guitar 1:
|----------------------------------------------------------
|----------------------------------------------------------
|----------------------------------------------------------
|-9-----9/10/12---10/12--\10\9---9-----9/10/12---12/14--\9- (x2)
|---10-----------------------------10----------------------
|----------------------------------------------------------

Guitar 1: 
e|----------7-------------------------------7-------------------
B|-8---8-10------7---7-8-10----7---7-8-10-------7---7---7---7---
G|---9-------------9-------------7--------7---9---9---9---9---9-
D|-------------------------------------------------------------- (x2)
A|--------------------------------------------------------------
E|--------------------------------------------------------------


                                    2nd Orchestral Part:
Guitar 1: 
e|----------7-------------------------------7------------7------
B|-8---8-10------7---7-8-10----7---7-8-10-------8---8---------8-
G|---9-------------9-------------7--------7---9---9---9---------
D|--------------------------------------------------------------
A|--------------------------------------------------------------
E|--------------------------------------------------------------

e|----------7-------------------------------7-------------10--7-
B|-8---8-10------7---7-8-10----7---7-8-10-------8---8-----8---8-
G|---9-------------9-------------7--------7---7---7---7---7---9-
D|--------------------------------------------------------------
A|--------------------------------------------------------------
E|--------------------------------------------------------------

|---------------10-8--7h8p7------------------------------------------
|-10-8--7h8p7---7-------------13-12--10-12---------12--8--10--12--7--
|-9---------------------------11-----------11------11--9-------------
|---------------------------------------------12---------------------
|--------------------------------------------------------------------
|--------------------------------------------------------------------

|---------------10-8--7h8p7-----------------------------------------------
|-10-8--7h8p7---7-------------13-12--10-12---------12--8--8---8---8---8---
|-9---------------------------11-----------11------11--9----9---9---9---9-
|---------------------------------------------12--------------------------
|-------------------------------------------------------------------------
|-------------------------------------------------------------------------

Guitar 2:Yoda       Meanwhile Guitar 2 Plays this 
|-------------------------------------------------------------------
|-------------------------------------------------------------------
|------------------------------------------------------------------- (x4)
|-9----9-9h10/12---14p12-12/10-9---12-----12--14-14/16-17/14--12--9-
|---10--------------------------------14----------------------------
|-------------------------------------------------------------------


 v                                  Outro:

Guitar 1
e|----------7-------------------------------7-------------------
B|-8---8-10------7---7-8-10----7---7-8-10-------8---8---8---8---
G|---9-------------9-------------7--------7---9---9---9---9---9-
D|-------------------------------------------------------------- (x6)
A|--------------------------------------------------------------
E|--------------------------------------------------------------


Guitar 2:
|----------------------------------------------------------
|----------------------------------------------------------
|----------------------------------------------------------
|-9-----9/10/12---10/12--\10\9---9-----9/10/12---12/14--\9- (x2)
|---10-----------------------------10----------------------
|----------------------------------------------------------



Enjoy :(
Suggest correction
Give kudos to tab author, rate the tab!
1 2 3 4 5
comments
print report bad tab
guest
You may want to rate the tab now too:
select rating
Wanna post a correction for this tab? Suggest correction