Oops, an error
Loading. Please wait.

The Jet Set Junta Chords

1,175 views 3 this week
no commentswrite comment
1 2 3 4 5
please rate
add to favorites
launch autoscroll
font size
0
reset
transpose
0
reset
display chords
guitar tuner
Tab Pro tools
  • play this tab
  • loop segment
  • change instrument
  • show fretboard
  • metronome
×
Best way to learn
"The Jet Set Junta"
Autoscroll
slow
fast
+/-
esc
set tempo
stop
Contributor
This is version from "Eligible Bachelors".

Intro:
(Whistle)
Em  G  A  B

            Em
Tick, tock, go the death watch beetles in él presidente’s swill
                                         A
Pop, pop, goes the Cliquot magnum at the reading of the will
            Em                                     C        B
Hiss, hiss, goes the snakeskin wallet stuffed with Cruziero bills

Chorus:
        Em    G   A   C   Em     G  A  C 
Here we come, the jet set junta 
        Em    G   A   C   A      B   
Here we come, the jet set junta

              Em
Broom, broom, goes the armoured Cadillac through Montevideo
                                         A
Rat-a-tat goes the sub-machine gun to restore the status quo
            Em                              C               B
Snip, snip, go the tailor’s scissors on the suit in Saville Row

Chorus

Guitar Solo

            Em
Thud, thud, goes the rubber truncheon on the Indian peon’s heel
                                           A
Buzz, buzz, go the brass electrodes as the flesh begins to peel
        Em                                C                  B        
Rattle, rattle, goes the bullet round and round the roulette wheel

Chorus x 2

        Em
Here we come.


And here is guitar solo. Second guitar plays chords above this tab.

     Em    D   Em    D    Em    G    A    C
e|------3--2-----------------3--5--7-5----3-|
B|-0-5-------3-5--0-----0-5-------------5---|
G|------------------------------------------|
D|------------------------------------------|
A|------------------------------------------|
E|------------------------------------------|

     Em    D   Em    D    Em    G    A    C   B
e|------3--2-----------------3--5--7-5----3-----------------|
B|-0-5-------3-5--0-----0-5-------------5---5-7^8^7^8^7^8^7-|
G|----------------------------------------------------------|
D|----------------------------------------------------------|
A|----------------------------------------------------------|
E|----------------------------------------------------------|

  Em                                              A            
e|------------------------------------------------------------|
B|------------------------------------------------------------|
G|------------------------------------------------------------|
D|----------7-9---9-7---------------------7-9---9-7-----------|
A|---7-9-10-----------10-9-7-------7-9-10-----------10-9-7----|
E|-7-------------------------7---7-------------------------5~-|

   Em              C         B
e|--------------------------------|
B|--------------------------------|
G|--------------------------------|
D|----------7-9---9-7-------------|
A|---7-9-10-----------10-9-7-6----|
E|-7------------------------------|
 here goes second guitar
e|--------------------------------|
B|--------------------------------|
G|----------6-7---7-6-------------|
D|---5-7-9------------9--7-5-4----|
A|-7------------------------------|
E|--------------------------------|
http://themonochromeset.co.uk/
comments
We did not receive enough feedback on this tab! Please rate:
print report bad tab
1 2 3 4 5
I want to post or [tab]
guest
You may want to rate the tab now too:
select rating
Please do not post tabs as comments. Select "correction" instead!