Oops, an error
Loading. Please wait.

Escalera Tab

53 views 1 this week
no commentswrite comment
1 2 3 4 5
3 more votes to show rating
add to favorites
launch autoscroll
font size
0
reset
how to read this tab
guitar tuner
×
Best way to learn
"Escalera"
Autoscroll
slow
fast
+/-
esc
set tempo
stop
Esta rola esta muy chida espero les sirva de algo

Intro.

E---------------------------------------------------
B---------------------------------------------------
G---------------------------------------------------
D---------------------------------------------------
A----5-7-9-7-5-7-9-12-9-7-9-7-5-7------5-7-9-7-5----
E---7----------------------------7-6--6----------6-7  (x2)


   Bm               D
Estoy sentado aqui cumpliendo mi papel
 G                            A#
nadie sospecha que en cualquier momento puedo huir
   Bm                D
a un lugar mejor sin moverme de aqui
 G                        A#
basta bajar esa escalera hasta el fondo de mi


E--------------------------------------------
B--------------------------------------------
G--------------------------------------------
D--------------------------------------------
A---5--5-7-9-7--5--5-7-9-------5-7-9-7-5-----
E--7--7--------7--7------7-6--6----------6-7-           (x2)

  Bm                D
Y aun estoy aqui pero algo no es igual
  G                       A#
el aire se transforma en algo parecido al mar
  Bm                D
inmensa densidad yo soy parte del mar
  G                       A#
yo soy la ola soy el agua el pez y la sal


Este es un arreglito antes del coro escuchenlo bien.

E--2-5-2--2-5-2--2-5-2--10-10-10-10-10-10-10-10-11-11-11-11-11-11
B----------------------------------------------------------------
G----------------------------------------------------------------
D----------------------------------------------------------------
A----------------------------------------------------------------
E----------------------------------------------------------------


CORO:

  Bm    A       D      A              Bm
Siempre vuelvo a mi el rio busca el mar
      A           D      A
cuando no estas aqui  hiii
  Bm    A          D          A           Bm
puede ser que al final el cambio de estacion
         A         D       A
yo te busque en el mar haaaa


"Eres como la noche callada y constelada tu silencio es
de estrella tan lejano y sencillo me gusta cuando callas
porque estas como ausente distante y dolorosa como si
hubieras muerto una palabra entonces una sonrisa basta...etc.


 Bm                D
Y aun estoy aqui pero algo no es igual
  G                       A#
el aire se transforma en algo parecido al mar
  Bm                D
inmensa densidad yo soy parte del mar
  G                       A#
yo soy la ola soy el agua el pez y la sal

CORO:

  Bm    A       D      A              Bm
Siempre vuelvo a mi el rio busca el mar
      A           D      A
cuando no estas aqui  hiii
  Bm    A          D          A           Bm
puede ser que al final el cambio de estacion
         A         D       A
yo te busque en el mar haaaa


Espero que le halla servido mi transcripcion un saludo a la raza
de ixtapaluca y a la comunidad de la fes zaragoza
y ¡arriba el rock mexicano!
Suggest correction
Give kudos to tab author, rate the tab!
1 2 3 4 5
comments
print report bad tab
guest
You may want to rate the tab now too:
select rating
Wanna post a correction for this tab? Suggest correction