Oops, an error
Loading. Please wait.

La Verdad Es Una Mentira En Los Ojos De Quien La M Tab

266 views 3 this week
no commentswrite comment
1 2 3 4 5
3 more votes to show rating
add to favorites
launch autoscroll
font size
0
reset
how to read this tab
guitar tuner
Autoscroll
slow
fast
+/-
esc
set tempo
stop
Help us to improve Ultimate-Guitar.com Take our survey!
×
Primera rola que quize subir y me la ganaron, pero decidi
añadir el intro y unos acordes que le faltaban.
Suena muy bien espero la disfruten.

Intro

A D E F#m (x4)
e---------------5------5--7--9--12--9--7--5---------------
B-----5---5---7-----7------------------------7-7-5-5h7-5--
G---6---6-------------------------------------------------
D---------------------------------------------------------
A---------------------------------------------------------
E---------------------------------------------------------

e--------------5-------5--7--9--12--12--9--12--14---------
B-----5--5--7-------7-------------------------------------
G---6--6--------------------------------------------------
D---------------------------------------------------------
A---------------------------------------------------------
E---------------------------------------------------------(x2)

A                    D
Una mentira repetida mil veces
E              F#m
se vuelve una verdad.
A                    D
Una verdad repetida mil veces
E                F#m
se vuelve una mentira.
A                            D
Las cosas nunca son lo que parecen
E             F#m
y desaparecen
A                              D
Cuando te encuentras con una mentira
E               F#m
descubres la verdad.

ESTRIBILLO

A                           D
Lo que sucede en este loco mundo
E                           F#m
nunca es lo mismo para los que miran
A                          D
lo que para unos es una verdad
E                            F#m
puede para otrs ser una mentira
A                             D
No importa nada de lo que se diga
E                             F#m
pues las palabras son para mentir
A                             D
hay otra forma de decir las cosas
E                          F#m
que no se pueden contradecir.

coro:

A                   D            Bm               Dm
La verdad es una mentira en los ojos de quien lo mira   (X 4)


A D E F#m(x4)


A                            D
Hay quien miente para ser el bien
E                            F#m
Hay quien miente sin mirar a quien
A                             D
Hay verdades que no puedes creer
E                          F#m
y otras que prefieres no saber
A                      D
Hay quien miente por amor
E                                 F#m
Hay quien miente para no sentir dolor
A                         D
Hay quien miente para olvidar
E                              F#m
Y hay quien miente para no llorar

Coro:

A                   D            Bm               Dm
La verdad es una mentira en los ojos de quien lo mira   [X4]

Salida:

A F#m Bm Dm (X4)


^^Ps esa es la rola.
como ven solo son unos ajustes minimos pero suena mejor^^
Suggest correction
Give kudos to tab author, rate the tab!
1 2 3 4 5
comments
print report bad tab
guest
You may want to rate the tab now too:
select rating
Wanna post a correction for this tab? Suggest correction