Oops, an error
Loading. Please wait.

Lovsong Tab

36 views 1 this week
no commentswrite comment
1 2 3 4 5
3 more votes to show rating
add to favorites
launch autoscroll
font size
0
reset
how to read this tab
guitar tuner
×
Best way to learn
"Lovsong"
Autoscroll
slow
fast
+/-
esc
set tempo
stop
esta cancion NO es exactamente en ingles mas bien es washa washeo
pero es asi como me imagino que se debria escribir
para tener una idea de como pronunciarla

G D Bm (X4)ESTO ACOMPAÑA AL INTRO
INTRO (parte 1)
e--------------------------------
b------7-8-7---------7-8-7-------
G---7-7-----9-9-7---7-----9-9-7--
D----9-----------9-9------------9
A--------------------------------
E--------------------------------
INTRO (parte 2)
e-------------------------------------
b------------7-8-7------------7-8-7---
G---7-7-9---9-----9-7-7-7-9--9-----9-7
D----9-----------------9--------------
A-------------------------------------
E-------------------------------------
G                 D
how my fay wuere i can hi
Bm                G         D
how  my fay whit you
Bm                G        D Bm
lov for or loving you

G                 D
how my fay wuere i can hi
Bm                G         D
how  my fay whit you
Bm                G        D Bm
lov for or loving you

G         G      G       G       G        D         Bm
love from love to love to love to love to you!!!    haaaa!!

aqui va unrequinto sencillo acompañado del INTRO

G D Bm (X3)   G D
e------------------7-8-10-12-14-15-17-19
b------------7-8-10---------------------
G---------7-9---------------------------
D---7-9-10------------------------------
A-10------------------------------------
E---------------------------------------

e-10--10-10-10-10/8-8-7-7~--8-7-7~------15-14-12-10-7-----10-10-10/8-8-7-7~
b--------------------------------------------------------------------------
G--------------------------------------------------------------------------
D--------------------------------------------------------------------------
A--------------------------------------------------------------------------
E--------------------------------------------------------------------------


Bm                      G                  D
LOVE FOR OR LOVIG YOU  (love for or loving you )    [x7]
hasta que solo quedan las percusiones

es una linda canción cualquier aclaracion o correcion
oble_reycal@
Suggest correction
Give kudos to tab author, rate the tab!
1 2 3 4 5
comments
print report bad tab
guest
You may want to rate the tab now too:
select rating
Wanna post a correction for this tab? Suggest correction