Oops, an error
Loading. Please wait.

Underwater bass

344 views 1 this week
no commentswrite comment
1 2 3 4 5
3 more votes to show rating
add to favorites
×
Save as Personal and add changes to this tab that will be seen only by you. Learn more ›
×
You can save this tab as Personal to edit and correct it or add notes. All changes will be seen only by you. Learn more »
launch autoscroll
font size
0
reset
guitar tuner
edit
Autoscroll
slow
fast
+/-
esc
set tempo
stop
Author
Difficulty
Band- Monster Cat
Song- Underwater
Album- Mannequins


Tuning: Standard (E A D G)
Tabbed by: Filipus
Email: filipe_bilipe@hotmail.com

You can find a cover here: https://www.youtube.com/watch?v=kWLY6OTaJ0w

small info: You can actually hear no clear bass until 2:10 (I have no idea if its just way low, muffled in 
the back or he doesn't actually play. I think there is a bass, but its behind the loud bass drum). 


Intro (00:00-00:15)

No Bass       No Bass       No Bass
       No Bass       No Bass       No Bass




Verse 1 (00:15-00:45)

No Bass       No Bass       No Bass
       No Bass       No Bass       No Bass


(00:45-01:15)
4x
G|----------------------------------------------------------------||
D|----------------------------------------------------------------||
A|-3~------3~-----------------------------------------------------||
E|-----------------1~--------1~-----------------------------------||


Chorus (01:15-01:55)  (So I'll hold you underwater..)

No Bass       No Bass       No Bass
       No Bass       No Bass       No Bass

BUT if you want to play something, play this (its actually the guitar doing this but its ok, 
we will all still love you <3)
2x 
G|----------------------------------------------------------------||
D|----------------------------------------------------------------||
A|-6----5----3------3--1------------------------------------------||
E|----------------------------------------------------------------||

then (01:48)
G|----------------------------------------------------------------||
D|----------------------------------------------------------------||
A|----------------------------------------------------------------||
E|---4---4---4---4---4---4---4---4--------------------------------||

Post-Chorus (Trumpet Instrumental\Solo)  (01:56-2:10)
2x
G|----------------------------------------------------------------||
D|----------------------------------------------------------------||
A|-3~------3~-----------------------------------------------------||
E|-----------------1~--------1~-----------------------------------||




Verse 2 (02:11-02:26)   (Your word don't come out clear..)

G|----------------------------------------------------------------||
D|-----------------------------3--3-----3-3-1-3-5-3-1-------------||
A|-3--1h3--3--1h3--3---1-------------3----------------------------||
E|----------------------3-2-1-------------------------------------||

G|----------------------------------------------------------------||
D|-----------------------------3--3-----3-3-1-3/------------------||
A|-3--1h3--3--1h3--3---1-------------3----------------------------||
E|----------------------3-2-1-------------------------------------||



Bridge (02:28-02:41) (I wont cry)


G|----------------------------------------------------------------||
D|-------------------------3-----1-3----3-3-3-3-3-3-3-------------||
A|-3-3---1-3---3--------------------------------------------------||
E|---------------3-2-1-------1------------------------------------||

G|----------------------------------------------------------------||
D|----------------------------------------------------------------||
A|-3-3---1-3---3--------------------------------------------------||
E|---------------3-4-4-4-4-4-4-4-4-4-4-4-4------------------------||
                   (tan-taTAN-taTAN-taTAN)

(02:42-03:04)
                   3x (the 2 segments)
        2x                  2x
G|-------------------|---------------------------------------------||
D|-------------------|---------------------------------------------||
A|-2-2--2-2-2-2------|-3-3--3-3-3-3--------------------------------||
E|-------------------|---------------------------------------------||
    (Try to hear the guitar\drums for the rhythm)

(03:04-03:24)
3x
G|----------------------------------------------------------------||
D|----------------------------------------------------------------||
A|----------------------------------------------------------------||
E|-3-3--3-3-3-3-----------2-2--2-2-2-2----------------------------||
    (Try to hear the guitar\drums for the rhythm)

G|----------------------------------------------------------------||
D|----------------------------------------------------------------||
A|----------------------------------1~----------------------------||
E|-3-3--3-3-3-3-------1-1--1-1-1-1--------------------------------||



Chorus (03:25-End)  (So I'll hold you underwater..)
 
G|----------------------------------------------------------------||
D|----------------------------------------------------------------||
A|-6----5----3------3--1------------------------------------------||
E|----------------------------------------------------------------||

G|----------------------------------------------------------------||
D|----------------------------------------------------------------||
A|-6--6-6h8h6--5-5h8h5--------------------------------------------||
E|---------------------4---4/8/6----------------------------------||


G|----------------------------------------------------------------||
D|----------------------------------------------------------------||
A|----------------------------------------------------------------||
E|---4-4---4-4--4---4-4--4---4-4--4---4/1///8~~~------------------||
                                     long slide

:)



| /  slide up
| \  slide down
| h  hammer-on
| p  pull-off
| ~  vibrato
| +  harmonic
| x  Mute note
===============================================================================
Suggest correction
Creating personal tab
Creating personal tab
You can edit any tab online and save it as your Personal.

You can edit, replace or remove any tab part or add personal notes – all changes will be seen only by you.

Personal tabs can be accessed anytime from any device, even offline.
Learn more »
Give kudos to tab author, rate the tab!
1 2 3 4 5
comments
print report bad tab
guest
You may want to rate the tab now too:
select rating
Wanna post a correction for this tab? Suggest correction