Oops, an error
Loading. Please wait.

Paradise tab

190 views 3 this week
2 commentsread comments
1 2 3 4 5
2 more votes to show rating
add to favorites
×
Save as Personal and add changes to this tab that will be seen only by you. Learn more ›
×
You can save this tab as Personal to edit and correct it or add notes. All changes will be seen only by you. Learn more »
launch autoscroll
font size
0
reset
how to read this tab
guitar tuner
edit
Autoscroll
slow
fast
+/-
esc
set tempo
stop
Monster Magnet - Paradise

Recorded version on the Last Patrol album

Tuning: standard

GUITAR 1: clean
GUITAR 2: distorted (sitar effect optional)
GUITAR 3: distorted
GUITAR 4: acoustic


GUITAR 1 (thru most of song)
e|---------------------------------------------------| 
B|---------------------------------------------------| 
G|---------------------------------------------------| 
D|---------------------------------------------------| 
A|---------------------------------------------------| 
E|-3-3-3-3-3-3-3-3-3-3-3-3-3-3-3-3-3-3-3-3-3-3-3-3-3-| 


GUITAR 2
:18 1:31 3:28 3:55
e|---------------------------------------------------| 
B|---------------------------------------------------| 
G|-5-5h7-5h7-5--5-5h7-5h7----5-5h7-5h7-5--5h7-5h7----| 
D|------------------------5-----------------------5--| 
A|---------------------------------------------------| 
E|---------------------------------------------------| 

:46
e|------------------------| 
B|------------------------| 
G|-7-5----7------7-5-7----| 
D|----------5----------5--| 
A|------------------------| 
E|------------------------| 

0:54 1:39
e|----------------------------------| 
B|----------------------------------| 
G|-5h7-5h7-5--5h7-5h7----5h7-5-7----| 
D|--------------------5----------5--| 
A|----------------------------------| 
E|----------------------------------|

1:03 1:49 4:14(song end: repeat last note one more time)
e|--------------------------------------------------------------| 
B|--------------------------------------------------------------| 
G|-5h7-5h7-7\5/7-7/10-7\5-5/7-7/10-10/12-12--10h12-10-10h12-10--| 
D|--------------------------------------------------------------| 
A|--------------------------------------------------------------| 
E|--------------------------------------------------------------|

1:58 (16x up to solo)
e|----------| 
B|----------| 
G|-10/12^^--| 
D|----------| 
A|----------| 
E|----------|

3:02
e|-----------------------------------------------| 
B|-----------------------------------------------| 
G|-10--------------------------------------------| 
D|--------12-12b(13)r12b(13)r12b(13)r12b(13)r12--| 
A|-----------------------------------------------| 
E|-----------------------------------------------|


GUITAR 3
1:14 to 1:48 (play fast: 16th notes)
e|--------------------------| 
B|--------------------------| 
G|--------------------------| 
D|--------------------------| 
A|--------------------------|
E|-333333333333333333333333-|

2:53 to 4:13 (play fast: 16th notes)
e|--------------------------| 
B|--------------------------| 
G|--------------------------| 
D|--------------------------| 
A|-555555555555555555555555-|
E|--------------------------|

1:58 (16x up to solo)
e|-----------| 
B|------3-5--| 
G|-5-5-------| 
D|-----------| 
A|-----------| 
E|-----------|


GUITAR 4
1:14  2:54
e|---------------------------------------------------| 
B|---------------------------------------------------| 
G|-3-3-3-3-3-3-3-3-3-3-3-3-3-3-3-3-3-3-3-3-3-3-3-3-3-| 
D|-5-5-5-5-5-5-5-5-5-5-5-5-5-5-5-5-5-5-5-5-5-5-5-5-5-| 
A|-x-x-x-x-x-x-x-x-x-x-x-x-x-x-x-x-x-x-x-x-x-x-x-x-x-|
E|-3-3-3-3-3-3-3-3-3-3-3-3-3-3-3-3-3-3-3-3-3-3-3-3-3-|

1:58
  Gm   A#m Cm
e|-3-3---6-8---| 
B|-3-3---6-8---| 
G|-3-3---6-8---| 
D|-5-5---7-10--| 
A|-5-5---7-10--| 
E|-3-3---6-8---|

2:34 (3x) at start of solo
(this is actually a 5th distorted guitar but
placed here for simplicity)
e|-------------| 
B|-11-11-10-8--| 
G|-10-10-9--7--| 
D|-8--8--7--5--| 
A|-------------| 
E|-------------|

2:52 (at end of solo) to 3:20 with Guitar 1 riff
e|---------------------------| 
B|---------------------------| 
G|---------------------------| 
D|---------------------------| 
A|-5-5-5-5-5-5-5-5-5-5-5-5-5-|
E|---------------------------|


SOLO:

GUITAR 2 Solo
2:34
e|---------------------------------------| 
B|----------------9/11-------------------| 
G|-10/12-10-10/12--------10/12-10--------| 
D|--------------------------------10/12--| 
A|---------------------------------------| 
E|---------------------------------------|

e|-----------------------------------------------------------------| 
B|----------------9/11--11-13-11-13-11-13-13qb13qb-11--------------| 
G|-10/12-10-10/12-------------------------------------12-10-12-12--| 
D|-----------------------------------------------------------------| 
A|-----------------------------------------------------------------| 
E|-----------------------------------------------------------------|

GUITAR 3 Solo
2:34
e|----------------------------------------------------| 
B|------3-5-5-5p3-------6-8-10-8-6-8--11-11-10-11-10--| 
G|-5-5------------5-5/7-------------------------------| 
D|----------------------------------------------------| 
A|----------------------------------------------------| 
E|----------------------------------------------------|

e|----------------------------------------------------13------| 
B|-11b(13)r11b(13)r11b(13)r11(b)13r11(b)13----13b(15)---(15)--| 
G|-----------------------------------------12-----------------| 
D|------------------------------------------------------------| 
A|------------------------------------------------------------| 
E|------------------------------------------------------------|

e|---------13-10----------------13-10--------11-10--------| 
B|-13b(15)-------13-11--13b(15)-------13-11--------13-11--| 
G|--------------------------------------------------------| 
D|--------------------------------------------------------| 
A|--------------------------------------------------------| 
E|--------------------------------------------------------|

e|---------------------------------------| 
B|-13-11---------------------------------| 
G|-------12-10-12-10---------------------| 
D|-------------------12-10-12-10\8-------| 
A|---------------------------------8-10--| 
E|---------------------------------------|END SOLO 2:52
                                           

LYRICS with times each line starts in song:
0:27 Sure is cold here and I ain’t lyin’
0:32 Stairs lead nowhere and the time is dead
0:36 If I had someone just to listen
0:41 I’d tell them stories about paradise
0:46 When I was young I crossed an ocean
0:50 Crossed an ocean oh so far away
0:55 Cosmic circus, instant passions
0:59 Found a way for me to make it pay

1:13 Let me guess now, my little monkey
1:17 You love your salt and your cigarettes
1:22 With your eyes shut you see Valhalla
1:26 You’ve lost some fight but you ain’t done yet
1:32 Now come a little bit closer
1:36 Mmmm well ain’t that nice
1:40 You and me girl, between the raindrops
1:45 Little pieces of paradise

1:58 Aww, yeah, aww, yeah, aww, yeah

2:16 Baby, I’m dyin’ so let’s do the cryin’
2:20 Cherish some sins in the cave
2:25 Under the rainbow where no one will ever know
2:30 We’ll make such a beautiful place

2:34 SOLO

3:38 Sure is hot here
3:40 Like a jungle
3:42 Hot enough now for life to grow
3:47 But it’s just too much
3:49 Can’t take the hassle
3:51 There ain’t no air and it’s time to go
3:57 Mmmm We’ve got the scars to prove us
4:00 Yeahhh Well ain’t that nice
4:05 And all that laughin’ and all that cryin’
4:09 Little memories of paradise


LEGEND:
| b(#) Bend To Fret        | b+   Sustained Bend
| r    Release Bend        | qb   Quarter Bend
| h    Hammer On           | p    Pull Off
| ^    Short Vibrato       | ^^   Long Vibrato
| /    Slide Up            | \    Slide Down
|(PH)  Pinch Harmonic      |(AH)  Artificial Harmonic
| x    Fret Hand Mute      | PM   Palm Mute

HOW TO USE THIS TAB:
- Because the song uses multiple guitars, the riffs are labeled
by the guitar and the time(s) in the song when each riff plays.
- Times each lyric line starts is provided for additional
guidance as to where each riff plays.
- In a band or recording situation, simply refer to the riffs
by citing the guitar number and the time it plays.
Suggest correction
Creating personal tab
Creating personal tab
You can edit any tab online and save it as your Personal.

You can edit, replace or remove any tab part or add personal notes – all changes will be seen only by you.

Personal tabs can be accessed anytime from any device, even offline.
Learn more »
Give kudos to tab author, rate the tab!
1 2 3 4 5
comments
print report bad tab
2 comments total.
0 reply
Fu-Manchu 10 Jun 20, 2017 06:18 AM

Thank you very much for this Tab! Been looking for Last patrol tabs for ages. Would love to see more tabs of this Record

guest
You may want to rate the tab now too:
select rating
Wanna post a correction for this tab? Suggest correction