Oops, an error
Loading. Please wait.

Space Lord Bass

version 1
version 1

Whole song

Interactive

11,908 views 21 this week
no commentswrite comment
1 2 3 4 5
x 5
add to favorites
launch autoscroll
font size
0
reset
guitar tuner
×
Best way to learn
"Space Lord"
Autoscroll
slow
fast
+/-
esc
set tempo
stop
Artist: Monster Magnet
Song: Space Lord
Album: Powertrip
Bassist: Joe Calandra
Tabbed by: LedZeplica

The tuning for this song is a half step down on all strings: 
E flat  A flat  D flat  G flat.

This is the main riff,
Wait until the second verse to come in and then play it..
Gb|---------------------------------
Db|----------------------------4-2--
Ab|-4--4-2-4---------4--4-2-4-------
Eb|-----------0-2-0-----------------

Then play this change when the lyrics go "Youll sing, uh..."
Gb|------------------
Db|------------------
Ab|------------------   x4
Eb|-0-2-0-2---2-2-2--

Then go back to the main riff..

Then play the chorus..
Gb|----------------
Db|----------------
Ab|-4--4-2-4-------
Eb|-----------2-0--

During the verse after the chorus, just hit this note at the beginning of 
each measure..
Gb|----
Db|----
Ab|-4--
Eb|----

Then play the main riff again for the rest of the verse..
Then play the change..
Then the main riff..
Then the chorus.. (the part where he's 
                     yelling "Spacelord Mother.." 
                     is played the same as the chorus)

Then play this bridge..
Gb|-------------------
Db|-------------------
Ab|-4--------0--------
Eb|-------------------

Then go back into the chorus again until the song fades out..

Thats all..

Later.
ledzeplica@aol.com
Suggest correction
comments
print report bad tab
guest
You may want to rate the tab now too:
select rating
Wanna post a correction for this tab? Suggest correction