Oops, an error
Loading. Please wait.

The Curse Bass Tab

16 views 6 this week
no commentswrite comment
1 2 3 4 5
3 more votes to show rating
add to favorites
launch autoscroll
font size
0
reset
guitar tuner
Autoscroll
slow
fast
+/-
esc
set tempo
stop
Help us to improve Ultimate-Guitar.com Take our survey!
×
Author
Difficulty
intermediate
Play with pick.
Tuning: Standard EADG


[Intro/Verse]
                                                                               _
G|---------------------------------------------------------------------------|   |
D|------------10-10-9-7----9----------------12-12----------------------------|   |
A|--7-7-7-7-7-----------10---10-10-10-10-10-------10-12-10-------------------|   |
E|---------------------------------------------------------------------------|   |
                                                                                 | 3x
G|---------------------------------------------------------------------------|   |
D|------------10-10-9-7----9-------------------------------------------------|   |
A|--7-7-7-7-7-----------10---10-10-10-10-10-9-9-10-9-5-----------------------|   |
E|---------------------------------------------------------------------------|  _|
                                                                              
G|---------------------------------------------------------------------------|  
D|------------10-10-9-7----9----------------12-12----------------------------|   
A|--7-7-7-7-7-----------10---10-10-10-10-10-------10-12-10-------------------|   
E|---------------------------------------------------------------------------| 

G|---------------------------------------------------------------------------|   
D|------------10-10-9-7----9-------------------------------------------------|   
A|--7-7-7-7-7-----------10---10-10-10-10-10-12-12-10-9-----------------------|   
E|---------------------------------------------------------------------------|

[Chorus]

G|---------------------------------------------------------------------------|
D|--2-------------------------------------2----------------------------------|  
A|----3-2-0-0-0-0-0-----------5-5-5-5-5-----3-2-0-0-0-0-0-----------5-5-5-5-5| 
E|------------------3-3-3-3-3-----------------------------3-3-3-3-3----------|

G|---------------------------------------------------------------------------|
D|-/14-14-14-14-14-----------------------------------------------------------|
A|-----------------0-0-0-0-0-----------5-5-5-5-5-----------------------------| 
E|---------------------------3-3-3-3-3---------------------------------------|

G|---------------------------------------------------------------------------|
D|--2------------------------------------------------------------------------|
A|----3-2-0-0-0-0-0-----------5-5-5-5-5--------------------------------------| 
E|------------------3-3-3-3-3------------------------------------------------|

[Intro/Verse]
                                                                               _
G|---------------------------------------------------------------------------|   |
D|------------10-10-9-7----9----------------12-12----------------------------|   |
A|--7-7-7-7-7-----------10---10-10-10-10-10-------10-12-10-------------------|   |
E|---------------------------------------------------------------------------|   |
                                                                                 | 3x
G|---------------------------------------------------------------------------|   |
D|------------10-10-9-7----9-------------------------------------------------|   |
A|--7-7-7-7-7-----------10---10-10-10-10-10-9-9-10-9-5-----------------------|   |
E|---------------------------------------------------------------------------|  _|
                                                                              
G|---------------------------------------------------------------------------|  
D|------------10-10-9-7----9----------------12-12----------------------------|   
A|--7-7-7-7-7-----------10---10-10-10-10-10-------10-12-10-------------------|   
E|---------------------------------------------------------------------------| 

G|---------------------------------------------------------------------------|   
D|------------10-10-9-7----9-------------------------------------------------|   
A|--7-7-7-7-7-----------10---10-10-10-10-10-12-12-10-9-----------------------|   
E|---------------------------------------------------------------------------|

[Chorus]

G|---------------------------------------------------------------------------|
D|--2-------------------------------------2----------------------------------|  
A|----3-2-0-0-0-0-0-----------5-5-5-5-5-----3-2-0-0-0-0-0-----------5-5-5-5-5| 
E|------------------3-3-3-3-3-----------------------------3-3-3-3-3----------|

G|---------------------------------------------------------------------------|
D|-/14-14-14-14-14-----------------------------------------------------------|
A|-----------------0-0-0-0-0-----------5-5-5-5-5-----------------------------| 
E|---------------------------3-3-3-3-3---------------------------------------|

G|---------------------------------------------------------------------------|
D|--2------------------------------------------------------------------------|
A|----3-2-0-0-0-0-0-----------5-5-5-5-5--------------------------------------| 
E|------------------3-3-3-3-3------------------------------------------------|

[Interlude]
                                                                               
G|---------------------------------------------------------------------------|
D|--0h2-2-2-2-2-0h2-2-2-2-2-0h2-2-2-2-2-2-5-4-5-4----------------------------|
A|------------------------------------------------5--------------------------| 
E|---------------------------------------------------------------------------|

G|---------------------------------------------------------------------------|
D|--0h2-2-2-2-2-0h2-2-2-2-2-0h2-2-2-2-2-2---2-0------------------------------|
A|----------------------------------------------3-2--------------------------| 
E|---------------------------------------------------------------------------|
                                                                               _
G|---------------------------------------------------------------------------|  |
D|---------------------------------------------------------------------------|  | 7x
A|---------------------------------------------------------------------------|  |
E|-0-0-0-0-0-0-0-0-0-1-0-1---------------------------------------------------| _|

G|---------------------------------------------------------------------------|
D|---------------------------------------------------------------------------|
A|---------------------------------------------------------------------------|
E|-0-0-0-0-0-0-0-0-0-0-0-0---------------------------------------------------|

[Chorus]

G|---------------------------------------------------------------------------|
D|--2-------------------------------------2----------------------------------|  
A|----3-2-0-0-0-0-0-----------5-5-5-5-5-----3-2-0-0-0-0-0-----------5-5-5-5-5| 
E|------------------3-3-3-3-3-----------------------------3-3-3-3-3----------|

G|---------------------------------------------------------------------------|
D|-/14-14-14-14-14-----------------------------------------------------------|
A|-----------------0-0-0-0-0-----------5-5-5-5-5-----------------------------| 
E|---------------------------3-3-3-3-3---------------------------------------|

G|---------------------------------------------------------------------------|
D|--2------------------------------------------------------------------------|
A|----3-2-0-0-0-0-0-----------5-5-5-5-5--------------------------------------| 
E|------------------3-3-3-3-3------------------------------------------------|

[Outro]

G|---------------------------------------------------------------------------|   
D|------------10-10-9-7------------------------------------------------------|   
A|--7-7-7-7-7-----------10---------------------------------------------------|   
E|---------------------------0>----------------------------------------------|  
                                                                                

/ = Slide Up To Fret
h = Hammer On
> = Let Ring

END.
Suggest correction
Give kudos to tab author, rate the tab!
1 2 3 4 5
comments
print report bad tab
guest
You may want to rate the tab now too:
select rating
Wanna post a correction for this tab? Suggest correction