Oops, an error
Loading. Please wait.

Dont Tell Me How To Live tab

version 2
version 2

Whole song

Interactive

5,098 views 51 this week
3 commentsread comments
1 2 3 4 5
x 4
add to favorites
×
Save as Personal and add changes to this tab that will be seen only by you. Learn more ›
×
You can save this tab as Personal to edit and correct it or add notes. All changes will be seen only by you. Learn more »
launch autoscroll
font size
0
reset
how to read this tab
guitar tuner
backing track
0:00
0:00
edit
Autoscroll
slow
fast
+/-
esc
set tempo
stop
Monster Truck -- Don’t tell me how to live -- TAB by Geraldo

Yo, here is my tab of the song! This is my first tab ever. Although i have put
a lot of time into it, i am not 100% sure about the third fill and some parts 
of the solo. Original Tuning: Standard, but in D (DGCFAD). Visit me on YouTube, 
i have played the song there. Look for: Geraldos School of Rock!

[Intro]
d|--------------------------------------------------|
A|--------------------------------------------------|
F|--------------------------------------------------|   x3     = Main Riff
C|--------------5-----------------------------------|
G|--------5h7------7-------7------7------7----------|
D|----5h7------------0-0-----0-0----0-0----0--------|
                    P.M.    P.M.   P.M.  P.M.      

d|--------------------------------------------------|
A|--------------------------------------------------|
F|--------------------------------------------------|
C|---------------sl---------------------------------|   x1      = DTMHTL Riff
G|-------5h7---(5)7---5----5---5--------------------|
D|---5h7----------------7---7----7--5--7--5--3--0---|

[Chorus]
    F5       C5        D5        D minor pentatonic fill
d|---------------------------------------------------------------------|
A|---------------------------------------------------------------------|
F|---------------------------------------------------------------------| = Chorus
C|-------------------------------12-14--14b16--14b16---14--12----------|
G|-------------5-------5--7----14-----------------------------14-------|
D|--3----5--7--------7-------------------------------------------------|

  F5       C5          D5        D minor pentatonic fill
d|-----------------------------------------------------------------------|
A|-------------------------------------------sl---15---------------------|
F|-------------------------------12--14--12--16-------14--12-------------|
C|----------------------------14-------------------------------14--------|
G|-------------5-------5--7----------------------------------------------|
D|--3----5--7--------7---------------------------------------------------|

    F5       C5        D5       D minor pentatonic fill
d|-----------------------------------------------------------------------|
A|-----------------------------------------------------------------------|
F|--------------------------------------12---------12-13-12--------------| 
C|--------------------------------12-14------14b16----------14--12-------|
G|-------------5-------5--7----14----------------------------------14----|
D|--3----5--7--------7---------------------------------------------------|

d|-----------------------------------------------|
A|-----------------------------------------------|
F|-----------------------------------------------|
C|-----------------------------------------------|
G|--------------------S-T-O-P-!------------------|
D|--3----3--5---------10-------------------------|

[Solo] -- 8 bars -- uses almost exlusively the Dminor pentatonic scale plus
                 the flatted 5th here and there, small numbers indicate the bars

d|1-----------------------------------------|2-----------------------------|
A|------------------------------------------|------------------------------|
F|--14b16-14b16--14b16--14--12--14--14--12--|--------------12--14--15--12--|  
C|------------------------------------------|--14--12--14------------------|
G|------------------------------------------|------------------------------|
D|------------------------------------------|------------------------------|

d|---------------------------------|3-------12---------12--------12------|
A|---------------------14--14--12--|--15b17------15b17-----15b17---------|
F|----------------12---14--14--12--|-------------------------------------|  
C|---14--12--14--------------------|-------------------------------------|
G|---------------------------------|-------------------------------------|
D|---------------------------------|-------------------------------------|

d|--------12--15--12------------------------------|4 ---------------------|
A|--15b17-------------15--12----------------------|-----------------------|
F|----------------------------14--12--14--12--14--|--14b15rb14-x4---12----|
C|------------------------------------------------|-----------------------|
G|------------------------------------------------|-----------------------|
D|------------------------------------------------|-----------------------|

d|5-------H.O.-----------------15-17b19-17-15--17--17--15----------------|
A|---15--(15)17--17--17--17--------------------------------17--15--17----|
F|-----------------------------------------------------------------------|
C|-----------------------------------------------------------------------|
G|-----------------------------------------------------------------------|
D|-----------------------------------------------------------------------|

d|6-----------------------15-17b19-17-15--17--17--15---------------------|
A|---17--17--15--17--17--------------------------------------------------|
F|-----------------------------------------------------------------------|
C|-----------------------------------------------------------------------|
G|-----------------------------------------------------------------------|
D|-----------------------------------------------------------------------|

d|7----------------------------------------------------------------------|
A|--15--17--15--15--12---------------------------------------------------|
F|----------------------14--12--14b15--14--12-----12--14b15--14--12------|
C|----------------------------------------------14-----------------------|
G|-----------------------------------------------------------------------|
D|-----------------------------------------------------------------------|

d|8---------12-12-------------------------------------|
A|----------12-12-------------------------------------|
F|----14b15---------x4--------------------------------|         
C|----------------------------------------------------| End of Solo
G|----------------------------------------------5h7---| Transition to:
D|------------------------------------------5h7-------|

d|-----------------------------------------------------|
A|-----------------------------------------------------|
F|-----------------------------------------------------|
C|----------sl-----------------------------------------|        DTMHTL Riff
G|---------(5)7---5----5---5---------------------------|
D|------------------7---7----7--5--7--5--3--0----------|

d|-----------------------------------------------------|
A|-----------------------------------------------------|
F|-----------------------------------------------------|
C|----------5------------------------------------------|        DTMHTL Riff Variation
G---------5----5--5----5---5---------------------------|
D|--5--7------------7---7----7--5--7--5--3--0----------|

[Structure]  | A = Main Riff | B = DTMHTL | C = Chorus | S = Solo |
------------------------------------------------------------------------------------------------
[Pre-count] | A | A | A | B | 
| A | A | A | A | A | A | A | A | A | A | A | A | B | B |
| C | C | C | C | C | C | C |
| A | A | A | A | A | A | A | A | B | B | B | B |
| C | C | C | C | C | C | C |
| S | S | S | S | S | S | S | S | B | B | B | B |
| C | C | C | C | C | C | C | C |
| C | C | C | C | C | C | C | C | C | C | C | C |

[Coda]  | B | B |

            
            
Suggest correction
Creating personal tab
Creating personal tab
You can edit any tab online and save it as your Personal.

You can edit, replace or remove any tab part or add personal notes – all changes will be seen only by you.

Personal tabs can be accessed anytime from any device, even offline.
Learn more »
comments
print report bad tab
3 comments total.
0 reply
CarlSat 10 Feb 22, 2016 02:17 AM

What a terrific work! Thanks for sharing this. Will try to find out the missing bar, but otherwise: TOP!

0 reply
guitarplayerG89 10 Feb 22, 2016 02:31 AM

Almost perfect, could play immediately with it.

0 reply
duranhenderson 31 Jan 28, 2017 12:27 PM

Very good tab bro!

guest
You may want to rate the tab now too:
select rating
Wanna post a correction for this tab? Suggest correction