Oops, an error
Loading. Please wait.

Righteous Smoke Tab

6,882 views 12 this week
1 commentread comment
1 2 3 4 5
accurate
x 10
add to favorites
launch autoscroll
font size
0
reset
how to read this tab
guitar tuner
Tab Pro tools
  • play this tab
  • loop segment
  • change instrument
  • show fretboard
  • metronome
×
Best way to learn
"Righteous Smoke"
Autoscroll
slow
fast
+/-
esc
set tempo
stop
Contributor
Difficulty
Tuning
intermediate
D G C F A D
The Song opens with a Bass and Drum Groove for about 50 seconds.  
Guitar comes in with a pick slide.  


VERSE:
d|--------------------------------------------------------------------------|
A|--------------------------------------------------------------------------|
F|-----------7---------------------------------7--------------------------7-|
C|-----------7-----2-----------5---2-----------7-------2-2-------5--2-----7-|
G|-----------5-----2-----------5---2-----------5-------2-2-------5--2-----5-|
D|----~xxx/0-------0-----------3---0-------------------0-0-------3--0-------|


CHORUS:
D|--------------------------------------------------------------------------|
A|--------------------------------------------------------------------------|
F|--------------------------------------------------------------------------|
C|--------------------------------------------------------------------------|
G|----5h7p5-7------------5h7p5-7-----------5h7p5-7----------5h7p5-7---------|
D|--0--------0--7p5\3--0--------0-7p5/3--0---------0-7p5/3-0-------0-7p5/3--|



D|--------------------------------------------------------------------------|
A|--------------------------------------------------------------------------|
F|--------------------------------------------------------------------------|
C|----7p5-7-------------5h7p5-7---------------------------------------------|
G|-0-0------0-7p5/3--0----------0-7p5\3---5h7p5-7------------5h7p5-7--------|
D|---------------------------------------0--------0-7p5-3--0---------0-7p5-3|



D|--------------------------------------------------------------------------|
A|--------------------------------------------------------------------------|
F|--------------------------------------------------------------------------|
C|-9--7---5-2--------------------------------------2-2----------------------|
G|-9--7---5-2----5h7p5h7-5h7p5h7--5h7p5h7--5h7p5---2-2----------------------|
D|-7--5-0-3-0--0-----------------------------------0-0----------------------|


Bridge:
D|--------------------------------------------------------------------------|
A|------12--14-12--14b12--14--12----------------12--14-12-14b---------------|
F|------12--14-12--14b12--14--12--14--12--------12--14-12-14b---------------|
C|--/14---------------------------14--12---\14------------------7--2--------|
G|--------------------------------------------------------------5--2--------|
D|-----------------------------------------------------------------0--------|


Solo
d|--------------------------------------------------------------------------|
A|------12----12----12--15p12--12-------------------------12h14p12----------|
F|--14b~---14b~--14b~--------14--14-12-14p12--12----------12h14p12----------|
C|------------------------------------------14---14p12-14----------14p12h14-|
G|--------------------------------------------------------------------------|
D|--------------------------------------------------------------------------|


d|---------------12---12---12-15p12-12--------------------------------------|
A|-12h14p12----15b~-15b~-15b~------15-12h15b/p12--12-------12h14p12---------|
F|-12h14p12-------------------------------------14--14p12--12h14p12---------|
C|--------------------------------------------------------14----------------|
G|--------------------------------------------------------------------------|
D|--------------------------------------------------------------------------|



d|--------------------------------------------------------------------------|
A|14b14p12----------12-12-----12-12-----------------------------------------|
F|14b14b12---------------14-12------14-12-----------------------------------|
C|----------14p12h14~---------------------14p12h14-------12-14p12-----------|
G|-------------------------------------------------12h14----------14--------|
D|--------------------------------------------------------------------------|



d|--------------------------------------------------------------------------|
A|--15p12-------------------------------------------------------------------|
F|--------12-14b14b14/15\14-12----------------------------------------------|
C|-----------------------------14~~~--x12---2--2----------------------------|
G|------------------------------------x12---2--2----------------------------|
D|------------------------------------x12---0--0----------------------------|
************************************

| /   slide up
| \   slide down
| h   hammer-on
| p   pull-off
| ~   vibrato
| +   harmonic
| x   Mute note
| b   Bend
| pb  Pre-bend
| br  Bend release
| pbr Pre-bend release
| brb Bend release bend

************************************
comments
print report bad tab
1 comment total.
0 reply
SCgm666 wrote on April 17 2013, 11:22 pm

Not bad overall, just a couple quick fixes.

CHORUS:
D|------------------------------------------------------------------------------|
A|------------------------------------------------------------------------------|
F|------------------------------------------------------------------------------|
C|------------------------------------------------------------------------------|
G|---5h7p5-7-------------5h7p5-7-------------5h7p5-7-------------5h7p5-7--------|
D|0--------0--5h7p5\3--0--------0-5h7p5/3--0---------0-5h7p5/3-0-------0-5h7p5/3|

D|--------------------------------------------------------------------------------|
A|--------------------------------------------------------------------------------|
F|--------------------------------------------------------------------------------|
C|----7p5-7--------------5h7p5-7--------------------------------------------------|
G|-0-0------0-5h7p5/3--0----------0-5h7p5\3---5h7p5-7------------5h7p5-7----------|
D|---------------------------------------0--------0---5h7p5-3--0---------0-5h7p5-3|

D|----------------------------------------------------------------------------------|
A|----------------------------------------------------------------------------------|
F|----------------------------------------------------------------------------------|
C|-9-9-9-9--7-7---5-4--------------------------------------2-2----------------------|
G|-9-9-9-9--7-7---5-4----5h7p5h7-5h7p5h7--5h7p5h7--5h7p5---2-2----------------------|
D|-7-7-7-7--5-5-0-3-2--0-----------------------------------0-0----------------------|

I want to post or [tab]
guest
You may want to rate the tab now too:
select rating
Please do not post tabs as comments. Select "correction" instead!