Oops, an error
Loading. Please wait.

Seven Seas Blues tab

version 2
version 2

Whole song

2,541 views 6 this week
3 commentsread comments
1 2 3 4 5
1 last vote to show rating
add to favorites
×
Save as Personal and add changes to this tab that will be seen only by you. Learn more ›
×
You can save this tab as Personal to edit and correct it or add notes. All changes will be seen only by you. Learn more »
launch autoscroll
font size
0
reset
how to read this tab
guitar tuner
edit
Autoscroll
slow
fast
+/-
esc
set tempo
stop
Author
Drop D Tuning

This song is pretty simple it's basically 3 parts.


Here's the Chorus/intro


e|-----------------------------------------------------------------------------|
B|-----------------------------------------------------------------------------|
G|-----------------------------------------------------------------------------|
D|------0----------0-----------------------------------------------------------|
A|-----------------------3--0----------1-0-------------------------------------|
D|---0------------0--------------------------5-0----3---2----------------------|



Verse Palm muted and then played open
e|---------------------------------------------------------------------------|
B|---------------------------------------------------------------------------|
G|---------------------------------------------------------------------------|
D|---0---0---0---0--0----0---0--6--6--5-3---3---3----3---3-3---3--3---3---3--|
A|---0---0---0---0--0----0---0--6--6--5-3---3---3----3---3-3---3--3---3---3--|
D|---0---0---0---0--0----0---0--6--6--5-3---3---3----3---3-3---3--3---3---3--|

Here's the breakdown section
e|------------------------------------------------------------------------------|
B|------------------------------------------------------------------------------|
G|------------------------------------------------------------------------------|
D|------------------------------------------------------------------------------|
A|---------------0-----------1--------------------------------------------------|
D|--0---0h2h3------0--------------5----3h5p3---------2h3p2----------------------|
Suggest correction
Creating personal tab
Creating personal tab
You can edit any tab online and save it as your Personal.

You can edit, replace or remove any tab part or add personal notes – all changes will be seen only by you.

Personal tabs can be accessed anytime from any device, even offline.
Learn more »
Give kudos to tab author, rate the tab!
1 2 3 4 5
comments
print report bad tab
3 comments total.
0 reply
MonsterJer 20 Apr 26, 2012 10:50 PM

Wrong tuning! DGCFAD

0 reply
thelaw1980 123 Jun 14, 2012 03:50 AM

Will correct, thanks!! Your band is unreal by the way!!

0 reply
amac535 10 Jul 21, 2012 11:18 AM

Any chance of a tab for Runnin'?

guest
You may want to rate the tab now too:
select rating
Wanna post a correction for this tab? Suggest correction