Oops, an error
Loading. Please wait.

Seven Seas Blues Tab

version 3
version 3

Whole song

1,128 views 6 this week
no commentswrite comment
1 2 3 4 5
please rate
add to favorites
launch autoscroll
font size
0
reset
how to read this tab
guitar tuner
Autoscroll
slow
fast
+/-
esc
set tempo
stop
Help us to improve Ultimate-Guitar.com Take our survey!
×
Author
               ************************************************
               *Tabs Written by Brandon any question email at:*   
               *          brandon.j.croft@gmail.com           *
               ************************************************

Intro
E|---|----------------------------|          *Note* in this tab ~ means let ring
B|---|----------------------------|                            h means hammer on
G|---|----------------------------|                             p means pull off 
D|---|----------------------------|                          and * means vibrato
A|---|---5*---5-3-0~-1-0---1-3-2-0|              and of course x means palm mute
D|12/|-0~--0~------------5---3-2-0|x4

Verse
E|------------------------------------------------------------------------|
B|------------------------------------------------------------------------|
G|------------------------------------------------------------------------|
D|------------------------------------------------------------------------|
A|------------------------------------------------------------------------|
D|-0-0-0-0-0-0-0-065-3-3-3-3-3-3-3-065-0-0-0-0-0-0-0-065-3-3-3-3030303065-|
   x x x x x x x xxx x x x x x x x xxx x x x x x x x xxx x x x x 

E|---------------------------------------------------------------------------------|
B|---------------------------------------------------------------------------------|
G|---------------------------------------------------------------------------------|
C|---------------------------------------------------------------------------------|
A|---------------------------------------------------------------------------------|
D|-0-0-0-0-0-0-0-065-3-3-3-303-3-3-065-0-0-0-0-0-0-0-065-3-3-3-3-0-3-0-3-0-3-0-065-|
   x x x x x x x xxx x x x 

Chorus
E|----------------------------|
B|----------------------------|
G|----------------------------|
D|----------------------------|           
A|---5*---5-3-0~-1-0---1-3-2-0|
D|-0~--0~------------5---3-2-0|x4

Verse 2
E|------------------------------------------------------------------------|
G|------------------------------------------------------------------------|
B|------------------------------------------------------------------------|
D|------------------------------------------------------------------------|
A|------------------------------------------------------------------------|
D|-0-0-0-0-0-0-0-065-3-3-3-3-3-3-3-065-0-0-0-0-0-0-0-065-3-3-3-3030303065-|
   x x x x x x x xxx x x x x x x x xxx x x x x x x x xxx x x x x 

E|---------------------------------------------------------------------------------|
B|---------------------------------------------------------------------------------|
G|---------------------------------------------------------------------------------|
D|---------------------------------------------------------------------------------|
A|---------------------------------------------------------------------------------|
D|-0-0-0-0-0-0-0-065-3-3-3-3-3-3-3-065-0-0-0-0-0-0-0-065-3-3-3-3-0-3-0-3-0-3-0-065-|
   x x x x x x x xxx x x x x x x x xxx 

Chorus 2
E|------------------------------|
B|------------------------------|
G|------------------------------|
D|------------------------------|           
A|---5*---5-3-0--1-0---1--3-2-0-|
D|-0~--0~------------5----3-2-0-|x4

Interlude
E|-----------------------------|
B|-----------------------------|
G|-----------------------------|
D|-----------------------------|          
A|--------0~--1----------------|
D|-0~-023---2~--5-3h5p3-2h3p2-0|

Solo
E|----------------------------------------------------------|
B|-10-----10-----10-----10-----10-----10-----15-----15------|
G|-12b14~-12b14--12b14~-12b14--12b14~-12b14--17b19~-17b19---|
D|----------------------------------------------------------|
A|----------------------------------------------------------|
D|----------------------------------------------------------|

E|--------------------------------------|
B|-15-----15-----15-----17--------------|
G|-17b19~-17b16~-17b16--19b21-----------|
D|--------------------------------------|
A|--------------------------------------|
D|--------------------------------------|

Outro ( repeats with averiation without the open D first 4 times)

E|------------------------------|
B|------------------------------|
G|------------------------------|
D|------------------------------|           
A|---5*---5-3-0--1-0---1--3-2-0-|
D|-0~--0~------------5----3-2-0-|
Suggest correction
Give kudos to tab author, rate the tab!
1 2 3 4 5
comments
print report bad tab
guest
You may want to rate the tab now too:
select rating
Wanna post a correction for this tab? Suggest correction