Oops, an error
Loading. Please wait.

Sweet Mountain River tab

version 1
version 1

Whole song

Interactive

13,695 views 9 this week
9 commentsread comments
1 2 3 4 5
x 7
add to favorites
×
Save as Personal and add changes to this tab that will be seen only by you. Learn more ›
×
You can save this tab as Personal to edit and correct it or add notes. All changes will be seen only by you. Learn more »
launch autoscroll
font size
0
reset
how to read this tab
guitar tuner
edit
Autoscroll
slow
fast
+/-
esc
set tempo
stop
This is pretty rough, still working on it. Also, this is my first attempt at
tabbing a song by ear. Any comments or corrections are welcome.

[Ending of intro solo...]
E|-----------------------------------------|
B|--14pr12~--------------------------------|
G|-----------14pr12~--\11------------------|
D|-------------------------12v--11--14~----|
A|-----------------------------------------|
E|-----------------------------------------|

(Build up palm muted...slowly release           1st ending)
E|-------------------------------------------|---------------------|
B|-------------------------------------------|---------------------|
G|-------------------------------------------|-------------------*-|
D|--------------------------------7--7--7--7-|-7--5--7--5--7br5--*-|
A|--7--7--7--7--7--5--7--5--7--5~------------|---------------------|
E|-------------------------------------------|---------------------|

[Riffage]
E|--------------------------------------------|
B|--------------------------------------------|
G|--------------------------------------------|Repeat lot's
D|--------------------5-----------------------|
A|-----------3--5--7-----7--3--5--7--3--5--7--|
E|--0--3--5-----------------------------------|

[Verse]
E|-----------------------------|
B|-----------------------------|
G|-----------------------------|(Repeat lot's)
D|--------------------5--------|
A|-----------3--5--7-----7~----|
E|--0--3--5--------------------|

[Pre-Chorus bit]
E|----------------------------------|-------------------------|
B|----------------------------------|-------------------------|
G|----------------------------------|-------------------------|
D|--------------------5-------------|-------------------------|
A|-----------3--5--7-----7--3--5--7-|-3--5--7--5--3--5--3-----|
E|--0--3--5-------------------------|---------------------5---|

[Chorus]                                         (1st ending)
E|-------------------------------------------|---------------------|
B|-------------------------------------------|---------------------|
G|-------------------------------------------|---------------------|
D|--------------------------------7--7--7--7-|-7--5--7--5--7br5----|
A|--7--7--7--7--7--5--7--5--7--5~------------|---------------------|
E|-------------------------------------------|---------------------|

[Riffage]
E|-------------------------------------------|
B|-------------------------------------------|
G|-------------------------------------------|(Repeat lot's)
D|-------------------5-----------------------|
A|----------3--5--7-----7--3--5--7--3--5--7--|
E|-0--3--5-----------------------------------|

[Face Melting Solo]

            
            
Suggest correction
Creating personal tab
Creating personal tab
You can edit any tab online and save it as your Personal.

You can edit, replace or remove any tab part or add personal notes – all changes will be seen only by you.

Personal tabs can be accessed anytime from any device, even offline.
Learn more »
comments
print report bad tab
9 comments total. Showing first comments.
+4 reply
angusyoung_sg 107 Nov 08, 2013 03:41 PM

Try this

E||--------------------------------------------||
B||--------------------------------------------||
G||*------------------------------------------*||
D||*-------------------5----------------------*||
A||--------------5--7-----7~--7-5-7~--7-5-7~---||
E||--0--3--5--7--------------------------------||

E||-----------------------------||
B||-----------------------------||
G||*---------------------------*||
D||*-------------------5-------*||
A||--------------5--7-----7\----||
E||--0--3--5--7-----------------||

0 reply
jakemm 10 Nov 11, 2013 11:40 AM

this is it.

E||--------------------------------------------||
B||--------------------------------------------||
G||*------------------------------------------*||
D||*-------------------3----------------------*||
A||--------------3--5-----5~--5-3-5~--5-3-5~---||
E||--1--3--5--5--------------------------------||

And the chorus is D G not E A.

at the pre-chorus:
E|--------------------------------|
B|--------------------------------|
G|--------------------------------|
D|--------------------------------|
A|-5--5--3--5--5--3--5-3-0--------|
E|---------------------------5-3-1|

The idea is right but you're in the wrong key.

0 reply
fred.morin.cubi 10 Dec 06, 2013 04:24 AM, edited at 09:24 am

good job

guest
Wanna post a correction for this tab? Suggest correction