Oops, an error
Loading. Please wait.

Sworded Beest tab

28 views 3 this week
no commentswrite comment
1 2 3 4 5
3 more votes to show rating
add to favorites
×
Save as Personal and add changes to this tab that will be seen only by you. Learn more ›
×
You can save this tab as Personal to edit and correct it or add notes. All changes will be seen only by you. Learn more »
launch autoscroll
font size
0
reset
how to read this tab
guitar tuner
edit
Autoscroll
slow
fast
+/-
esc
set tempo
stop
[Intro]
e|-13-13---13-13-|
B|---------------|
G|---------------|
D|---------------|
A|---------------|
D|---------------|

e|-----------------|-----------------|-----------------|-------------------|
B|-----------------|-----------------|-----------------|-------------------|
G|-----------------|-----------------|-----------------|-------------------|
D|-----------------|-----------------|-----------------|---------------7-5-|
A|-------3-----3h5-|-------3-----3h5-|-------3-----3h5-|-------8---5-8-----|
D|-0---0---0-0-----|-0---0---0-0-----|-0---0---0-0-----|-5---5---5---------|

e|-----------------|-----------------|-----------------|-------------------|
B|-----------------|-----------------|-----------------|-------------------|
G|-----------------|-----------------|-----------------|-------------------|
D|-----------------|-----------------|-----------------|---------------7-5-|
A|-------3-----3h5-|-------3-------5-|-------3-----3h5-|-------8---5-8-----|
D|-0---0---0-0-----|-0---0---------0-|-0---0---0-0-----|-5---5---5---------|


e|-----------|
B|-7---------|
G|---7---5---|
D|---------8-|
A|-----------|
D|-----------|

[Verse 1]
(PM)
e|---------------------------|-----------------------------| (x2)
B|---------------------------|-----------------------------|
G|---------------------------|-----------------------------|
D|-----------------------3b4-|-----------------------------|
A|-5-----------------5-------|-5-----------------3p2-------|
D|-0---0-0-0-0-0-0-0---------|-0---0-0-0-0-0-0-0-------5p3-|

(End PM)
e|---------------------------|-----------------------------| (x2)
B|---------------------------|-----------------------------|
G|---------------------------|-----------------------------|
D|----------------------3b4--|-----------------------------|
A|-5-----------------5-------|-5-----------------3p2-------|
D|-0---0---0---0---0---------|-0---0---0---0---0-------5p3-|

[Pre-chorus 1]
e|---------------------|----------------|
B|---------------------|-10p8----8------|
G|---------------------|------10---10p7-|
D|---------------------|----------------|
A|-5-------------------|----------------|
D|-5---5-5-5-5-5-5-5-5-|----------------|

[Chorus 1]
e|-----------------|-----------------|-----------------|-------------------|
B|-----------------|-----------------|-----------------|-------------------|
G|-----------------|-----------------|-----------------|-------------------|
D|-----------------|-----------------|-----------------|---------------7-5-|
A|-------3-----3h5-|-------3-----3h5-|-------3-----3h5-|-------8---5-8-----|
D|-0---0---0-0-----|-0---0---0-0-----|-0---0---0-0-----|-5---5---5---------|

e|-----------------|-----------------|-----------------|-------------------|
B|-----------------|-----------------|-----------------|-------------------|
G|-----------------|-----------------|-----------------|-------------------|
D|-----------------|-----------------|-----------------|---------------7-5-|
A|-------3-----3h5-|-------3-------5-|-------3-----3h5-|-------8---5-8-----|
D|-0---0---0-0-----|-0---0---------0-|-0---0---0-0-----|-5---5---5---------|

e|-----------|
B|-7---------|
G|---7---5---|
D|---------8-|
A|-----------|
D|-----------|

[Verse 2]
(PM)
e|---------------------------|-----------------------------| (x2)
B|---------------------------|-----------------------------|
G|---------------------------|-----------------------------|
D|-----------------------3b4-|-----------------------------|
A|-5-----------------5-------|-5-----------------3p2-------|
D|-0---0-0-0-0-0-0-0---------|-0---0-0-0-0-0-0-0-------5p3-|

(End PM)
e|---------------------------|-----------------------------| (x2)
B|---------------------------|-----------------------------|
G|---------------------------|-----------------------------|
D|----------------------3b4--|-----------------------------|
A|-5-----------------5-------|-5-----------------3p2-------|
D|-0---0---0---0---0---------|-0---0---0---0---0-------5p3-|

[Pre-chorus 2]
e|---------------------|----------------|
B|---------------------|-10p8----8------|
G|---------------------|------10---10p7-|
D|---------------------|----------------|
A|-5-------------------|----------------|
D|-5---5-5-5-5-5-5-5-5-|----------------|

[Chorus 2]
e|-----------------|-----------------|-----------------|-------------------|
B|-----------------|-----------------|-----------------|-------------------|
G|-----------------|-----------------|-----------------|-------------------|
D|-----------------|-----------------|-----------------|---------------7-5-|
A|-------3-----3h5-|-------3-----3h5-|-------3-----3h5-|-------8---5-8-----|
D|-0---0---0-0-----|-0---0---0-0-----|-0---0---0-0-----|-5---5---5---------|

e|-----------------|-----------------|-----------------|-------------------|
B|-----------------|-----------------|-----------------|-------------------|
G|-----------------|-----------------|-----------------|-------------------|
D|-----------------|-----------------|-----------------|---------------7-5-|
A|-------3-----3h5-|-------3-------5-|-------3-----3h5-|-------8---5-8-----|
D|-0---0---0-0-----|-0---0---------0-|-0---0---0-0-----|-5---5---5---------|

e|---------------------------|
B|-7-------------------------|
G|---7---5-------------------|
D|---------8-----------------|
A|---------------------------|
D|-------------2b3-2b3-2b3-0-|

[Bridge]
e|-----------------|---------------|---------------|-----------------|(x6)
B|-----------------|---------------|---------------|-----------------|
G|-----------------|---------------|---------------|-----------------|
D|-----------------|---------------|-----5-3---5-3-|-5p7-7-7-7-5-5-5-|
A|-----------------|-----3-0---3-0-|-0-------------|-----------------|
D|-0---0-5-3---5-3-|-3-0-----------|---0-----------|-----------------|

e|-----------------|---------------|-------------------|----------------|(x4)
B|-----------------|---------------|-------------------|----------------|
G|-----------------|---------------|-------------------|----------------|
D|-----------------|---------------|-----------2-3-2-0-|----------------|
A|-------8-5---8-5-|-5---5-3---5-3-|-3-----3-5---------|-3-5-3-0--------|
D|-0---0-----------|---0-----------|-----0-------------|---------6-5-3-0|

[Chorus 3]
e|-----------------|-----------------|-----------------|-------------------|
B|-----------------|-----------------|-----------------|-------------------|
G|-----------------|-----------------|-----------------|-------------------|
D|-----------------|-----------------|-----------------|---------------7-5-|
A|-------3-----3h5-|-------3-----3h5-|-------3-----3h5-|-------8---5-8-----|
D|-0---0---0-0-----|-0---0---0-0-----|-0---0---0-0-----|-5---5---5---------|

e|-----------------|-----------------|-----------------|-------------------|
B|-----------------|-----------------|-----------------|-------------------|
G|-----------------|-----------------|-----------------|-------------------|
D|-----------------|-----------------|-----------------|---------------7-5-|
A|-------3-----3h5-|-------3-------5-|-------3-----3h5-|-------8---5-8-----|
D|-0---0---0-0-----|-0---0---------0-|-0---0---0-0-----|-5---5---5---------|

e|-----------------|-----------------|-----------------|-------------------|
B|-----------------|-----------------|-----------------|-------------------|
G|-----------------|-----------------|-----------------|-------------------|
D|-----------------|-----------------|-----------------|---------------7-5-|
A|-------3-----3h5-|-------3-----3h5-|-------3-----3h5-|-------8---5-8-----|
D|-0---0---0-0-----|-0---0---0-0-----|-0---0---0-0-----|-5---5---5---------|

e|-----------------|-----------------|-----------------|-------------------|
B|-----------------|-----------------|-----------------|-------------------|
G|-----------------|-----------------|-----------------|-------------------|
D|-----------------|-----------------|-----------------|---------------7-5-|
A|-------3-----3h5-|-------3-------5-|-------3-----3h5-|-------8---5-8-----|
D|-0---0---0-0-----|-0---0---------0-|-0---0---0-0-----|-5---5---5---------|

[Outro]
e|-----------------|-----------------|-------------------|----------------|
B|-----------------|-----------------|-------------------|-10p8----8------|
G|-----------------|-----------------|-------------------|------10---10p7-|
D|---------------7-|---------------7-|---------------7-5-|----------------|
A|-------8---5-8---|-------8---5-8---|-------8---5-8-----|----------------|
D|-5---5---5-------|-5---5---5-------|-5---5---5---------|----------------|


************************************

| h   Hammer-on
| b   Bend
| p   Pull-off
| PM  Palm mute

************************************

            
            
Suggest correction
Creating personal tab
Creating personal tab
You can edit any tab online and save it as your Personal.

You can edit, replace or remove any tab part or add personal notes – all changes will be seen only by you.

Personal tabs can be accessed anytime from any device, even offline.
Learn more »
Give kudos to tab author, rate the tab!
1 2 3 4 5
comments
print report bad tab
guest
You may want to rate the tab now too:
select rating
Wanna post a correction for this tab? Suggest correction