Oops, an error
Loading. Please wait.

The Sandman The Brakeman And Me Tab

version 1
version 1

Solo

Whole song

6,476 views 1 this week
3 commentsread comments
1 2 3 4 5
x 6
add to favorites
launch autoscroll
font size
0
reset
how to read this tab
guitar tuner
Autoscroll
slow
fast
+/-
esc
set tempo
stop
Help us to improve Ultimate-Guitar.com Take our survey!
×
Difficulty
novice
---------------------------------------|
---------------------------------------|
---0-----------------------------------|
-----2-2-3-2-3-2-----------------------|
-----------------3---------------------|
---------------------------------------|

This may not be entirely accurate, it does go into a C Chord and then F, as well as an 
but I am not sure on the song.

This is just a beginning to get people interested in posting the whole thing.
Suggest correction
comments
print report bad tab
3 comments total.
0 reply
serpantboy 190 Sep 24, 2009 10:11 AM

post it up

0 reply
afroman_rmb 121 Sep 25, 2009 06:12 AM

e-------------------------------|
G-------------------------------|
B---0---------------------------|
D-----2-3p2p0---0h2p0-----------|
A-------------3-------3---------|
E-------------------------------|

Is a lot closer, I think.
And this is shortly echoed higher up. You could stick a capo on 12 and stick with this tab but if, like me, you want to play both parts on the same guitar then this is one of many possible ways to play it:

e---3---------------------------|
G-----5-------------------------|
B-------6p5p3---3h5p3-----------|
D-------------5-------5---------|
A-------------------------------|
E-------------------------------|

0 reply
eugenethelamb 10 Sep 29, 2009 03:54 AM

e-3---0---1p0----------0-------------|
G-------------3-1---1h3--3p1---------|
B---0---0---------------------0------|
D------------------------------------|
A-3---3---3---3-3---3----3----3------|
E------------------------------------|

(All variations on a C)

I'm not exactly sure if thats how it's played on the album, but it sounds nice when you play along

guest
You may want to rate the tab now too:
select rating
Wanna post a correction for this tab? Suggest correction