Oops, an error
Loading. Please wait.

Destroying Divinity Tab

version 1
version 1

Whole song

Interactive

2,049 views 3 this week
no commentswrite comment
1 2 3 4 5
3 more votes to show rating
add to favorites
launch autoscroll
font size
0
reset
how to read this tab
guitar tuner
×
Best way to learn
"Destroying Divinity"
Autoscroll
slow
fast
+/-
esc
set tempo
stop
Tuning: C sharp

   .... ........ .... .... .... .... ........ .... ........ . . .
e|----------------------------------------------------------------|
B|----------------------------------------------------------------|
G|----------------------------------------------------------------|
D|--------------------5555-------------------------55555555-------|
A|------55554444-----------5555------55554444---------------5-6-5-|
E|-3333----------3333-----------3333----------3333----------3-4-3-|

   .... ........ .... .... .... .... ........ .... ........ . . .
e|----------------------------------------------------------------|
B|----------------------------------------------------------------|
G|----------------------------------------------------------------|
D|--------------------5555-------------------------66666666-------|
A|------55554444-----------5555------66665555---------------6-7-5-|
E|-3333----------3333-----------4444----------4444----------4-5-3-|

   . ... . ... . .... .... . ... . ... . ........ . . .
e|------------------------------------------------------|
B|------------------------------------------------------|
G|------------------------------------------------------|
D|---------------5555--------------------55555555-------|
A|-------5-444--------5555-------5-444------------5-6-5-|
E|-3-333-------3-----------3-333-------3----------3-4-3-|

   . ... . ... . .... .... . ... . ... . ........ . . .   . ... . ... . . ...
e|----------------------------------------------------------------------------|
B|----------------------------------------------------------------------------|
G|------------------------------------------------------/---------------------|
D|---------------5555--------------------66666666-------/---------------------|
A|-------5-444--------5555-------6-555------------6-7-5-/-------5-444---------|
E|-3-333-------3-----------4-444-------4----------4-5-3-/-3-333-------3-4-444-|

   . ... .    . . . . . .
e|----------------------------|
B|----------------------------|
G|----------/---------------/-|
D|-5-444----/---------------/-|
A|-------5--/-5-6-5-4-2-5---/-|
E|----------/-3-4-3-2-0-3---/-|

e|---------------------------------------------------------------------|
B|---------------------------------------------------------------------|
G|---------------------------------------------------------------------|
D|-----------------------------------5555------------------------------|
A|------5555444455556666555544445555------6666555544446666555544445555-|
E|-3333----------------------------------------------------------------|

       ............     ............            h.
e|------------------------------------------------|
B|------------------------------------------------|
G|-4-5--------------4-5----------------------/----|
D|-----------------------------------^^^^^^^-/----|
A|-2-3--------------2-3--------------1212121-/--3-|
E|-----000000000000-----000000000000---------/----|

e|----------------|
B|----------------|
G|-4-5----4-5-----|
D|-----2----------|
A|-2-3-2--2-3-4-5-|
E|-----0------2-3-|

   . . . .........       .........       h.
e|-------------------------------------------|
B|-------------------------------------------|
G|---------------------------------/---------|
D|-----3---------------3-----------/---------|
A|-3-2-1-222222222-3-2-1-222333555-/-2-2-2-3-|
E|-1-0---000000000-1-0---000222333-/-0-0-0---|

                                                     . ... h.
e|-----------------------------------------------------------|
B|-----------------------------------------------------------|
G|-------------------------------------------------/---------|
D|-----3-----------------------3-------------------/---------|
A|-3-2-1-2-2-2-2-222-2-222-3-2-1-2-2-2-------------/-------3-|
E|-1-0---0-0-0-0-000-0-000-1-0---0-0-0-2-222-3-333-/-0-000---|


************************************

| .  Staccato
| /  Slide up

************************************
Suggest correction
Give kudos to tab author, rate the tab!
1 2 3 4 5
comments
print report bad tab
guest
You may want to rate the tab now too:
select rating
Wanna post a correction for this tab? Suggest correction